» » »

Breathing Bass tabs (ver.1)

Artists:  A B C D E F G H I J K L M N O P Q R S T U V W X Y Z # 

Breathing Bass tabs (ver.1)

Yellowcard
Rating:
4/5 (6 votes)

Hard to play? Try these video lessons and learn fast.
                Tuning : Drop D

Intro:
|-------------------------------------------------------------------|
|-------------------------------------------------------------------|
|-------------------------------------------------------------------|
|-2-2-2/10-10-10-4-4-4--5-5-5-5-5-4-4--2-2-2/10-10-10-4-4-4-5-5-5-5-|

Pre-Verse:
|--------------------------------------------------------|
|--------------------------------------------------------|
|-3-3---------8-6-8------6-4----3-3----------4-6-8-8-6-4-|
|-----0-0-2-2-------8-6-4-----------0-0-2-2--------------|

Verse:
|----------------------------------------------|
|----------------------------------------------|
|-3-3-3--3-----------------------------------2-|
|-----------0-0-0--0--2-2-2--2--2-2-2--5-5-5---|

|-----------------------------------------------|
|-----------------------------------------------|
|-3-3-3--3--2-2-2--2--0-0-0--0--0-0-0-0-2-2-2-2-|
|-----------------------------------------------|

|---------------------------------------------------------------|
|---------------------------------------------------------------|
|-3-3-3-3-3-3-3-3-------------------------------------------2-0-|
|------------------0-0-0-0-0-0-0-0--2-2-2-2-2-2-2-2--2-2-2------|

|---------------------------------------------------|
|---------------------------------------------------|
|-3-3-3-3-3-3-3-3-----------------------------------|
|------------------0-0-0-0-0-0-0-0--2-2-2-2-2-2-2-2-|

Chorus:
|------------------------------------------------------------------|
|------------------------------------------------------------------|
|-3-3-3-3-3-3-3-3-3-3-3-3-3-3-3-3----------------------------------|
|----------------------------------0-0-0-0-0-0-0-0-0-0-0-0-0-0-0-0-|

|--------------------------------|
|--------------------------------|
|--------------------------------|
|-2-2--2-2-2-0-0--2-2--2-2-2-0-0-|

Interlude
|--------------------------------------------------------|
|--------------------------------------------------------|
|-3-3---------8-6-8------6-4----3-3----------4-6-8-8-6-4-|
|-----0-0-2-2-------8-6-4-----------0-0-2-2--------------|

Verse: repeat first part

Verse part 2: 'I couldn't bare to hurt you...'
|------------------------------------------------------------------|
|------------------------------------------------------------------|
|-3-3-3-3-3-3-3-3-3-3-3-3-3-3-3-3----------------------------------|
|----------------------------------0-0-0-0-0-0-0-0-0-0-0-0-0-0-0-0-|

|------------------------------------------------------------------|
|------------------------------------------------------------------|
|----------------------------------2-0-----------------------------|
|-2-2-2-2-2-2-2-2-2-2-2-2-2-2-2-2----------------------------------|

|------------------------------------------------------------------|
|------------------------------------------------------------------|
|-3-3-3-3-3-3-3-3-3-3-3-3-3-3-3-3----------------------------------|
|----------------------------------0-0-0-0-0-0-0-0-0-0-0-0-0-0-0-0-|

|------------------------------------------------------------------|
|------------------------------------------------------------------|
|------------------------------------------------------------------|
|-2-2-2-2-2-2-2-2-2-2-2-2-2-2-2-2----------------------------------|

Chorus
|------------------------------------------------------------------|
|------------------------------------------------------------------|
|-3-3-3-3-3-3-3-3-3-3-3-3-3-3-3-3----------------------------------|
|----------------------------------0-0-0-0-0-0-0-0-0-0-0-0-0-0-0-0-|

|--------------------------------|
|--------------------------------|
|--------------------------------|
|-2-2--2-2-2-0-0--2-2--2-2-2-0-0-|


Pre-Bridge: 'You're breathing...'
|------------------------------------------------------------------|
|------------------------------------------------------------------|
|-3-3-3-3-3-3-3-3-3-3-3-3-3-3-3-3----------------------------------|
|----------------------------------0-0-0-0-0-0-0-0-0-0-0-0-0-0-0-0-|

|------------------------------------------------------------------|
|------------------------------------------------------------------|
|------------------------------------------------------------------|
|-2-2-2-2-2-2-2-2-2-2-2-2-2-2-2-2--5-5-5-5-5-5-5-5-5-5-5-5-5-5-5-5-|

|------------------------------------------------------------------|
|------------------------------------------------------------------|
|-3-3-3-3-3-3-3-3-3-3-3-3-3-3-3-3----------------------------------|
|----------------------------------0-0-0-0-0-0-0-0-0-0-0-0-0-0-0-0-|

|--------------------------------|
|--------------------------------|
|--------------------------------|
|-2-2--2-2-2-0-0--2-2--2-2-2-0-0-|

Bridge: (Bass and drums only)
|-------------------------|
|---4-4-------------------|
|-5-----0---2-2-0-2-3-3-4-|
|-------------------------|

|-------------------------------------------------------------------|
|-------------------------------------------------------------------|
|-------------------------------------------------------------------|
|-2-2-2/10-10-10-4-4-4--5-5-5-5-5-4-4--2-2-2/10-10-10-4-4-4-5-5-5-5-|

------------------------------------Rest------------------------------------

Chorus
|------------------------------------------------------------------|
|------------------------------------------------------------------|
|-3-3-3-3-3-3-3-3-3-3-3-3-3-3-3-3----------------------------------|
|----------------------------------0-0-0-0-0-0-0-0-0-0-0-0-0-0-0-0-|

|--------------------------------|
|--------------------------------|
|--------------------------------|
|-2-2--2-2-2-0-0--2-2--2-2-2-0-0-|

Pre-Bridge
|------------------------------------------------------------------|
|------------------------------------------------------------------|
|-3-3-3-3-3-3-3-3-3-3-3-3-3-3-3-3----------------------------------|
|----------------------------------0-0-0-0-0-0-0-0-0-0-0-0-0-0-0-0-|

|------------------------------------------------------------------|
|------------------------------------------------------------------|
|------------------------------------------------------------------|
|-2-2-2-2-2-2-2-2-2-2-2-2-2-2-2-2--5-5-5-5-5-5-5-5-5-5-5-5-5-5-5-5-|

|------------------------------------------------------------------|
|------------------------------------------------------------------|
|-3-3-3-3-3-3-3-3-3-3-3-3-3-3-3-3----------------------------------|
|----------------------------------0-0-0-0-0-0-0-0-0-0-0-0-0-0-0-0-|

|--------------------------------|
|--------------------------------|
|--------------------------------|
|-2-2--2-2-2-0-0--2-2--2-2-2-0-0-|

End on:
D|-5~-|
            
Hard to play? Try these video lessons and learn fast. | Correct




comments powered by Disqus
↑ Back to top | Tablatures and chords are parodies/interpretations of the original songs. You may use it for private study, scholarship, research or language learning purposes only