» » »

Yellowcard, Breathing Bass tabs (ver.2)

Artists:  A B C D E F G H I J K L M N O P Q R S T U V W X Y Z # 

Breathing Bass tabs (ver.2)

Yellowcard Tabs
Rating:
4/5 (2 votes)
Breathing lessons Tabs too difficult? Try these video lessons and learn fast
                Breathing - yellowcard


This is how our band play this song,it looks
simple but its kinda tricky with the tempo part...
oist jet! eto na! baseline drive rules!!! ch33rs!!!

It's a good song! enjoi....

Tuning: standard
Intro:
G--------------------------------------------|
D----9--------------9------------------------|
A--7---9-10-10-9--7---9-10-10----------------|
E--------------------------------------------|

G---------------------------------------------|
D---------------------------------------------|
A---7-5-7--5h7--------7-5-7--9-10-9-7---------|
E--------------7p5-0--------------------------|


verse:
G---------------------------------------------|
D---------------------------------------------|
A---33-55-77---------33-22-0~-0-2-------------|
E------------3-2-0----------------------------|

G---------------------------------------------|
D---------------------------------------------|
A---3333333335555555555-----------------------|
E----------------------00000000000------------|

G---------------------------------------------|
D---------------------------------------------|
A---3333333335555555555-----------------------|
E----------------------00000000000------------|

chorus 1:
G---------------------------------------------|
D---------------------------------------------|
A---3333333335555555555-77x7775--77x7775------|2x
E---------------------------------------------|

instrumental:
G---------------------------------------------|
D---------------------------------------------|
A---7-5-7--5h7--------7-5-7--9-10-9-7---------|
E--------------7p5-0--------------------------|

(repeat verse)

chorus 2:
G---------------------------------------------|
D---------------------------------------------|
A---3333333335555555555-77x7775--77x7775------|2x
E---------------------------------------------|


G-----------------------------------------------------|
D-----------------------------------------------------|
A---3333333335555555555777777777710101010101010-------|
E-----------------------------------------------------|

G---------------------------------------------|
D---------------------------------------------|
A---3333333335555555555-77x7775--77x7775------|
E---------------------------------------------|

ADLIB:

G--------------------------------------------|
D----9--------------9------------------------|
A--7---9-10-10-9--7---9-10-10----------------|
E--------------------------------------------|

Bridge: no bass

chorus:
G---------------------------------------------|
D---------------------------------------------|
A---3333333335555555555-77x7775--77x7775------|2x
E---------------------------------------------|


G-----------------------------------------------------|
D-----------------------------------------------------|
A---3333333335555555555777777777710101010101010-------|
E-----------------------------------------------------|


G------------------------------------------------------------------------|
D---------------------------999------------------999---------------------|
A---3333333335555555555--777---999101010109---777---99910101010----------|
E------------------------------------------------------------------------|


                                                           /bon
            
Submit corrections

comments powered by Disqus
↑ Back to top | Yellowcard Bass for Breathing. Lyrics for acoustic guitar and electric guitar. Tablatures and chords are parodies/interpretations of the original songs. You may use it for private study, scholarship, research or language learning purposes only