>
 >
Breathing 2

Breathing 2 Bass Tabs

Yellowcard - Breathing 2 chords, tabs, tablatures, lyrics

Guitar lessons | Add/correct | Request | Top 50 tabs Artists:  A B C D E F G H I J K L M N O P Q R S T U V W X Y Z 0-9

Breathing 2 Bass Tabs – Yellowcard

CD, Sheet music, Poster

Do you like Breathing 2? Share with your friends now
Bass TabsBass Tabs v2Bass Tabs v3ChordsChords v2Chords v3TabsTabs v2Tabs v3Ukulele
-----------------------------------------------------------------------
Breathing - Yellowcard
-----------------------------------------------------------------------
   Tuning: Standard

Intro (0:05)
G|-------------------------------------------------------------------------------|
D|-------------------------------------------------------------------------------|
A|-----333------------------333----------------333------------------333----------|
E|-222-----444-55555-44-222-----444-5555---222-----444-55555-44-222-----444-5555-|

Pre Verse(0:16)
G|-------------7h97--------0--------------------------------------------|
D|------------------9h79-7---------------2/4-5/7-5\---------------------|
A|-2h3-3h5-5h7---------------7-9-2h3-3h5--------------------------------|
E|----------------------------------------------------------------------|

Verse (0:26)
G|---------------------------------------------------------|
D|---------------------------------------------------------|
A|-333-3-555-5--------------0h2-333-3-222-2-000-0-00022222-|
E|-------------222-2-444555--------------------------------|

(0:37)
G|-------------------------------------------------------------7-9-10-9-|
D|----------------------------------------------------------------------|
A|-33333333-55555555-------------------33333333-55555555-77777----------|
D|-------------------22222224-66655544----------------------------------|

Chorus (0:47)
G|-----------------------------------------------------| 2x
D|-----------------------------------------------------|
A|-3333333333333333------------------------------------|
D|------------------0000000000000000-22-222-0-22-222-0-|

Pre Verse (1:04)
G|-------------7h97--------0-------------------11h12-11------|
D|------------------9h79-7---------------2/4-5----------12-9-|
A|-2h3-3h5-5h7---------------7-9-2h3-3h5---------------------|
E|-----------------------------------------------------------|

Verse (1:15)
G|----------------------------------------------------------|
D|----------------------------------------------------------|
A|-333-3-555-5---------------0h2-333-3-222-2-000-0-00022222-|
E|-------------222-2-444555---------------------------------|

G|---------------------------------------------------------------7-9-10-9-|
D|------------------------------------------------------------------------|
A|-33333333-55555555----------7779991010-33333333-55555555-77777----------|
D|-------------------22222224---------------------------------------------|

Chorus (1:36)
G|-----------------------------------------------------| 2x
D|-----------------------------------------------------|
A|-3333333333333333------------------------------------|
D|------------------0000000000000000-22-222-0-22-222-0-|

(1:52)
G|-----------------------------------------------------------------------------|
D|----------------------------------------------------5555555544440000---------|
A|-3333333333333333-5555555555555555-7777777777777777--------------------------|
D|-----------------------------------------------------------------------------|

G|------------------------------------------5----------|
D|-----------------------------------------------------|
A|-3333333333333333-5555555555555555-77-777---77-777-5-|
D|-----------------------------------------------------|

Bridge (2:11)
G|------------------------------------|5x |------------------------------|
D|-----10-10-10-----------------------|   |-----10-10-10-----------------|
A|-777----------999-10-10-10-10-10-99-|   |-777----------999-10-10-10-10-|
D|------------------------------------|   |------------------------------|

(2:26)
G|------------------------------------|------------------------------| 2x
D|-----10-10-10-----------------------|-----10-10-10-----------------|
A|-777----------999-10-10-10-10-10-99-|-777----------999-10-10-10-10-|
D|------------------------------------|------------------------------|

Chorus (2:58)
G|-----------------------------------------------------| 2x
D|-----------------------------------------------------|
A|-3333333333333333------------------------------------|
D|------------------0000000000000000-22-222-0-22-222-0-|

(3:14)
G|-----------------------------------------------------------------------------|
D|----------------------------------------------------5555555544440000---------|
A|-3333333333333333-5555555555555555-7777777777777777--------------------------|
D|-----------------------------------------------------------------------------|

G|-----------------------------------|
D|-----------------------------------|
A|-3333333333333333-5555555555555555-|
D|-----------------------------------|

Bridge (3:31))
G|------------------------------------|------------------------------|
D|-----10-10-10-----------------------|-----10-10-10-----------------|
A|-777----------999-10-10-10-10-10-99-|-777----------999-10-10-10-10-|
D|------------------------------------|------------------------------|





Comments


Popular Yellowcard tabs & chords
Life Of A Salesman 2 Bass Tabs
Empty Apartment 1 Chords
Words Hands Hearts 1 Chords
Empty Apartment Tabs
Only One (Intro) Tabs
Possessions Tabs
Rough Draft 1 Tabs
Space Travel 2 Tabs
When Were Old Men Tabs
When Were Old Men 2 Tabs


Song lyrics



↑ Back to top | Tablatures and chords are parodies/interpretations of the original songs. You may use it for private study, scholarship, research or language learning purposes only
© 2014 AZChords.com Contact us | Privacy policy | DMCA | Add/correct tabs | Request tabs | Top 50 tabs