» » »

Yellowcard, Only One Chords (ver.1)

Artists:  A B C D E F G H I J K L M N O P Q R S T U V W X Y Z # 

Only One Chords (ver.1)

Yellowcard Tabs
 Rating:
4/5 (4 votes)
Only One lessons Tabs too difficult? Try these video lessons and learn fast
1
                "Only One" -- Chords
Yellowcard
Ocean Avenue
  

   C#     A    Em    Bm     G
e|-----|-----|-----|-----|-----|
B|-----|-----|-----|-----|-----|
G|--6--|--2--|-----|--4--|--5--|
D|--6--|--2--|--2--|--4--|--5--|
A|--4--|--0--|--2--|--2--|--3--|
E|-----|-----|--0--|-----|-----|

Verse 1 (strum):

C#                          A         
Broken, this fragile thing now

Bm           C#                      A
and I can't, I can't pick up the pieces.

C#                               A 
And I've thrown my words all around, 

Bm           C#                   A
but I can't, I can't get you a reason. 



Pre-chorus (palm muted, distortion):

          Bm             
I feel so broken up (so broken up),

    C# 
and I give up (I give up), 

Em                           Bm
I just wanna tell you so you know.. 



Chorus (distortion):

       C#
Here I go, 

           A                          Em
scream my lungs out and try to get to you, 

Bm         G
you are my only one. 

C#
I let go, 

             A                            Em
there's just no one that gets me like you do

Bm         
you are my only, 

G
my only one. 

After 1st Chorus, the violin plays this little riff

Post-chorus violin riff:
e|--------------------------------------------|
B|---------14~----12~-------------------------|
G|-13~------x------x-------13~----------------|
D|--x------11~-----9~-------x---------11-\-9~-|
A|-11~---------------------11~---------x---x--|
E|-------------------------------------9-\-7~-|



Verse 2 (strum):

C#                         A
Made my mistakes, let you down

Bm           C#                       A
and I can't, I can't hold on for too long. 

C#                           A
Ran my whole life in the ground

Bm           C#                        A   
and I can't, I can't get up when your gone.

 

Pre-chorus (palm muted, distortion):

                Bm
And something's breaking up (breaking up), 

            C#
I feel like giving up (like giving up),

Em                         Bm 
I won't walk out until you know.. 



Chorus (distortion):

       C#
Here I go 

          A                           Em
scream my lungs out and try to get to you,

Bm      G 
you are my only one.

      C# 
I let go 

             A                            Em
there's just no one that gets me like you do

Bm 
you are my only, 

G
my only one. 


Solo:

The Guitar continues playing the Chorus in the background and the violin has this solo.

Solo violin riff:
e|------16~|------19-19-17--------------------16~|-------16-16-------|------|
B|17-19----|17-17------------17-17--14-17-19-----|-17-17-------19-19~|17-14~|
G|---------|-------------------------------------|-------------------|------|
D|---------|-------------------------------------|-------------------|------|
A|---------|-------------------------------------|-------------------|------|
E|---------|-------------------------------------|-------------------|------|



Bridge (strum):

       C#
Here i go, 

      A
so dishonestly. 

        Em
Leave a note 

Bm         G
for you my only one. 

      C#
And i know,

            A 
you can see right through me. 

       Em
So let me go 

Bm           G 
and you will find someone. 



Repeat Chorus a few times

End On C#
            
Submit corrections

comments powered by Disqus
↑ Back to top | Yellowcard Chords for Only One. Lyrics for acoustic guitar and electric guitar. 1 Tablatures and chords are parodies/interpretations of the original songs. You may use it for private study, scholarship, research or language learning purposes only