>
 >
Breathing 1

Breathing 1 Guitar Tabs

Yellowcard - Breathing 1 chords, tabs, tablatures, lyrics

Guitar lessons | Add/correct | Request | Top 50 tabs Artists:  A B C D E F G H I J K L M N O P Q R S T U V W X Y Z 0-9

Breathing 1 Guitar Tabs – Yellowcard

CD, Sheet music, Poster

Do you like Breathing 1? Share with your friends now
Bass TabsBass Tabs v2Bass Tabs v3ChordsChords v2Chords v3TabsTabs v2Tabs v3Ukulele
tuning: drop d

Intro

e ----------------------------------------------------------------|
B ----------------------------------------------------------------|
G ----------------------------------------------------------------|
D ----------------------------------------------------------------|
A ----------------------------------------------------------------|
D 2-2-2-10-10-10-4-4-4-5-5-5-5-5-4-4-2-2-2-10-10-10-4-4-4-5-5-5-5-|
pm. . . . . . . . . . . . . . . . . . . . . . . . . . . . . . . .

part 1
e|-----------------------------|
B|-----------------------------|
G|-----------------------------|
D|2--5-------------2--5--------|
A|2--3--4--5-5-5-4-2--3--4--5-5|
D|2-----4--5-5-5-4-2-----4--5-5|

part 2

e|--------------------------------------------|
B|7/8--8\7--7/8--10/12-12/13-12--10-7-8--8-7--|
G|x-x--x-x--x-x---x--x--x--x--x---x-x-x--x-x-7|
D|4/5--5\4--4/5---7/-9--9/10--9---7-4-5--5-4-x|
A|-------------------------------------------5|
D|--------------------------------------------|

part3

e|---------------------------------------------|
B|---------------------------------------------|
G|5-5-5--5/7-7-7--7\----------------------4----|
D|5-5-5--5/7-7-7--7\2-2-2--2--2-2-2-5-5-5-4----|
A|3-3-3--3/5-5-5--5\2-2-2--2--2-2-2-5-5-5-2----|
D|------------------2-2-2--2--2-2-2-5-5-5------|
PM. .      . .      . .       . . . . . .

e|---------3-3-3--3-----------------3-3-3|
B|---------3-3-3--3-----------------3-3-3|
G|5-5-5--5\0-0-0--0-2-2-2--2--2-2-2-0-0-0|
D|5-5-5--5\X-X-X--X-2-2-2--2--2-2-2-X-X-X|
A|3-3-3--3\2-2-2--2-0-0-0--0--0-0-0-2-2-2|
D|---------------------------------------|
PM. .      . .      . .       . .   . .

e|-------------------------------------------------|
B|-------------------------------------------------|
G|5-5-5--5-5-5--7-7-7--7-7-7----------------------4|
D|5-5-5--5-5-5--7-7-7--7-7-7--2-2-2--2-2-2--5-5-5-4|
A|3-3-3--3-3-3--5-5-5--5-5-5--2-2-2--2-2-2--5-5-5-2|
D|----------------------------2-2-2--2-2-2--5-5-5--|
pm. .    . .    . .    . .    . .    . .    . . .

e|-------------------------------------------|
B|-------------------------------------------|
G|5-5-5--5-5-5--7-7-7--7-7-7-----------------|
D|5-5-5--5-5-5--7-7-7--7-7-7--2-2-2-2-2-2-2-2|
A|3-3-3--3-3-3--5-5-5--5-5-5--2-2-2-2-2-2-2-2|
D|----------------------------2-2-2-2-2-2-2-2|
PM. .    . .    . .    . .    . . .   .   .

PART 4

e|-------------------------------------------------------|
B|-------------------------------------------------------|
G|5-5-5-5-5-5-5-5-7-7-7-7-7-7-7-7------------------------|
D|5-5-5-5-5-5-5-5-7-7-7-7-7-7-7-7--2-2--2-2-0--2-2--2-2-0|  2X
A|3-3-3-3-3-3-3-3-5-5-5-5-5-5-5-5--2-2--2-2-0--2-2--2-2-0|
D|---------------------------------2-2--2-2-0--2-2--2-2-0|

PART 2
PART 3
PART 4

PART 5

e|-------------------------------------------------------|
B|-------------------------------------------------------|
G|5-5-5-5-5-5-5-5-7-7-7-7-7-7-7-7------------------------|
D|5-5-5-5-5-5-5-5-7-7-7-7-7-7-7-7-2-2-2-2-2-2-2-2--------|
A|3-3-3-3-3-3-3-3-5-5-5-5-5-5-5-5-2-2-2-2-2-2-2-2--------|
D|--------------------------------2-2-2-2-2-2-2-2--------|

e|-----------------------------------------------------------------------|
B|-----------------------------------------------------------------------|
G|----------------5-5-5-5-5-5-5-5-7-7-7-7-7-7-7-7------------------------|
D|5-5-5-5-5-5-5-5-5-5-5-5-5-5-5-5-7-7-7-7-7-7-7-7-*2-2--2-2-0--2-2--2-2-0|
A|5-5-5-5-5-5-5-5-3-3-3-3-3-3-3-3-5-5-5-5-5-5-5-5-*2-2--2-2-0--2-2--2-2-0|
D|5-5-5-5-5-5-5-5---------------------------------*2-2--2-2-0--2-2--2-2-0|

PART 6 (CLEAN)

e|----------------------|
B|----------------------|
G|9-9--9-9--9-9--9-9-9-7| 4X
D|9-9--9-9--9-9--9-9-9-7|
A|7-7--7-7--7-7--7-7-7-7|
D|----------------------|

PART 1

PART 7 (CLEAN)

e|---------------------------------------------------------|
B|5--5-5--5-5-5-/7--7-7--7-7-7-/8--8-8--8-8-8--8--8-8-/12\3|
G|0--0-0--0-0-0-/0--0-0--0-0-0-/0--0-0--0-0-0--0--0-0-/ 0\0|
D|X--X-X--X-X-X-/X--X-X--X-X-X-/X--X-X--X-X-X--X--X-X-/ X\X|
A|3--3-3--3-3-3-/5--5-5--5-5-5-/7--7-7--7-7-7--7--7-7-/10\1|
D|---------------------------------------------------------|

e|--------------1--1-1--1-1-1-0--0-0--0-0-0--0--0-0--0--0-0|
B|5--5-5--5-5-5-0--0-0--0-0-0-1--1-1--1-1-1--1--1-1--3--3-3|
G|0--0-0--0-0-0-0--0-0--0-0-0-2--2-2--2-2-2--2--2-2--2--2-2|
D|X--X-X--X-X-X-0--0-0--0-0-0-2--2-2--2-2-2--2--2-2--2--2-2|
A|3--3-3--3-3-3---------------0--0-0--0-0-0--0--0-0--0--0-0|
D|---------------------------------------------------------|

e|-----------------------------------------------------------|
B|5--5-5--5-5-5-/7--7-7--7-7-7-/8--8-8--8-8-8--8--8-8--7--7-7|
G|0--0-0--0-0-0-/0--0-0--0-0-0-/0--0-0--0-0-0--0--0-0--0--0-0|
D|X--X-X--X-X-X-/X--X-X--X-X-X-/X--X-X--X-X-X--X--X-X--X--X-X|
A|3--3-3--3-3-3-/5--5-5--5-5-5-/7--7-7--7-7-7--7--7-7--5--5-5|
D|-----------------------------------------------------------|

e|-------------------------------------------|
B|5--5-5--5-5-5-/7--7-7--7-7-7-/8--8-8--8-8-8|
G|0--0-0--0-0-0-/0--0-0--0-0-0-/0--0-0--0-0-0|
D|X--X-X--X-X-X-/X--X-X--X-X-X-/X--X-X--X-X-X|
A|3--3-3--3-3-3-/5--5-5--5-5-5-/7--7-7--7-7-7|
D|-------------------------------------------|

PART 5 (WITHOUT THE RIFF AFTER THE STARS)
PART 1





Comments


Popular Yellowcard tabs & chords
Only One 1 Chords
View From Heaven 4 Chords
Star Struck Drum Tabs
Fighting 1 Tabs
Firewater 1 Tabs
Only One Live Tabs
Something Of Value 2 Tabs
Space Travel Tabs
Takedown Tabs
View From Heaven 2 Ukulele


Song lyrics



↑ Back to top | Tablatures and chords are parodies/interpretations of the original songs. You may use it for private study, scholarship, research or language learning purposes only
© 2014 AZChords.com Contact us | Privacy policy | DMCA | Add/correct tabs | Request tabs | Top 50 tabs