>
 >
Forever Love

Forever Love Guitar Tabs

X Japan - Forever Love chords, tabs, tablatures, lyrics

Guitar lessons | Add/correct | Request | Top 50 tabs Artists:  A B C D E F G H I J K L M N O P Q R S T U V W X Y Z 0-9

Forever Love Guitar Tabs – X Japan

CD, Sheet music, Poster

Do you like Forever Love? Share with your friends now
Bass TabsTabsTabs v2
e|--------0----0-------------------3-----------------0------------|
B|----1----1----1---1---------0-----0---0--------1----1---1-------|
G|---0-0----0----0---0-------0-0-----0---0------2-2----2---2------|
D|--2---2-------------2-----0---0---------0----2---2--------2-----|
A|-3------------------------------------------0-------------------|
E|-------------------------3--------------------------------------|

e|------0-----------------0----0---0---------3---3----------------|
B|-----1-3------0--------1-1----1---1-------0-0---0---0-----------|
G|----2--------0-0------0---0----0---0-----0---0---0-0------------|
D|---3--------0---0---------------------------------0-------------|
A|---------------------3------------------------------------------|
E|-1--------3----------------------------3------------------------|

e|-----5-------3-------1-------3------1---1---0----0--------------|
B|----5-5-----0-0-----1-1-----0-0--------1---1----1-1-------------|
G|---5---5---0---0---2---2---0---0------0---0----0---0------------|
D|----------------------------------------------------------------|
A|-0----------------------------------3-------3-------------------|
E|----------3-------1-------3-------------------------------------|

e|-1-----1--------0--|
B|-----1------1---1--|
G|---0------0-----0--|
D|-------------------|
A|-3--------------3--|
E|-------------------|

Verse

e|-0---0-1-3---------------------0--------------------------------|
B|------------3---1-0---3-1-1---1-1---1---------------------------|
G|---0-----------0-------------2---2-2----------------------------|
D|--2-----------0-------------2-----2-----------------------------|
A|-3-----------2--------0-----------------------------------------|
E|------------3---------------------------------------------------|

e|-1---1-3-5--0-----------0--------3-------0---0-1-3--------------|
B|---3--------------3-1-----3-3---0-0-0--------------3--3-1-0-----|
G|--2-----------0----------------0---0-0-----0----------0---------|
D|-0-----------2----------------0-------0---2----------0----------|
A|------------3----------------------------3----------2-----------|
E|------------------------3--------------------------3------------|

e|----------0----8-7---------------------0-8-7-5---5-3-3----3------|
B|-3-1-1---1---1-----8---10----10------------------0-------0----0--|
G|--------2-------------------9--9------------------------0--0-0-0-|
D|-------2------------------10----10-10------------------0----0----|
A|-0----------------------8---------8------------------------------|
E|-------------------------------------------------3---------------|

e|-8-------10--||
B|-8----8--12--||
G|-0---0----0--||
D|----0--------||
A|-------------||
E|-------------||


Pre Chorus

e|-8----------------0------------0-----------1-1---------|
B|-10-----10----------1-3-1---3-------1-----1------------|
G|-------9--9-----------------------0------0-------------|
D|-----10----10-10------------------------2--------------|
A|-8-----------8--------------3----------3---------------|
E|-------------------------------------------------------|

e|-3-------------3-5-7--7--8--------------8-------------0------|
B|-0---0----------------5------5----5-10-------10--------1-3-1-|
G|----0-0------0--------5-----5----5----------9--9-------------|
D|---0---0----0-------------------7---------10----10-10--------|
A|-------------------------------0--------8---------8----------|
E|-3--------3-----------0--------------------------------------|

e|----0------------0-0--3-------------------------------||
B|-3--------1-----1-----0---0------0------12-------12---||
G|--------0------0---------0-0----0-0----0--12-----12---||
D|--------------2---------0---0--0---0--0-----12--------||
A|------3------3----------------------------------------||
E|-3--------------------3-------3------3-----------3----||

chorus:

e|----10-8-8-----------------10-8-8-------------8-10-12--7----------------|
B|-8--8-------------------8--10-----------10-------------8---8-----8-10-8-|
G|----9-------------9--------9--------------9---------------9-9---9-------|
D|-------------10----10---------------9------10------------9---9-9--------|
A|-----------10--10----10----0------10-10---------------------------------|
E|----8--------------------------------------------------0------0---------|


e|---------8------7--------10-8-8--------------10-8-8-----------8-10-12-|
B|-10-------------8--8--8--8----------------8--10----------10-----------|
G|------10-----10-0--------9-----------9-------9--------9----9----------|
D|----10-----10--------------------10---10------------10-10---10--------|
A|-8-----------------------------10--10---10----------------------------|
E|-------------------------8-------------------8------------------------|
                                          ^
e|-7-------------------------8------7-----|10-8-8---------|
B|-8---8------8-10-8--10------------8-8---|10-------------|
G|----9-9----9-------------10----10-0-----|9--------------|
D|---9---9--9------------10----10---------|---------------|
A|--------------------8-------------------|-----------0---|
E|-0-------0------------------------------|0-----------3--|

e|----1--------3---------3------------12--10-12-10||
B|---1-1------0-0------0-1--10-12-13--13--------9-||repeat
G|--2---2----0---0--------------------11----------||pre chorus
D|-------------------2----------------------------||
A|------------------0-----------------------------||
E|-1-------3------------------------------------0-||

    ||---------8----7---10-8-8-------|
chorus +||--10----------8--8---------|
    ||--------------0----------------|
    ||------10----10-----------------|
    ||----10----10-------------------|
    ||--8----------------------------|

verse:
pre chorus:
chorus:
chorus +


e|--------------------3---3-----------5--------3-----|
B|------8------------3-3---3---3-----5-5------3-3----|
G|-----9-9------9---4---4---4-4-----5---5----4---4---|
D|---10---10--10-------------5-----------------------|
A|-10-------10--------------------0------------------|
E|-----------------3-----------------------3---------|

e|----1-------3-------1---1---0---0-----1---1------0--|
B|---1-1-----0-0-------1---1---1---1-----1---1-----1--|
G|--2---2---0---0-------0---0---0---0-----0---0----0--|
D|-------------------------------------------------2--|
A|--------------------3-----------------3----------3--|
E|-1-------3------------------------------------------|





Comments


Popular X Japan tabs & chords
Ill Kill You 2 Bass Tabs
Longing Bass Tabs
Miscast Bass Tabs
Alive 1 Tabs
Endless Rain (Solo) Tabs
Endless Rain 3 Tabs
Longing 2 Tabs
Silent Jealousy Intro Tabs
Endless Rain Ukulele
Tears Ukulele


Song lyrics



↑ Back to top | Tablatures and chords are parodies/interpretations of the original songs. You may use it for private study, scholarship, research or language learning purposes only
© 2014 AZChords.com Contact us | Privacy policy | DMCA | Add/correct tabs | Request tabs | Top 50 tabs