» » »

Endless Rain Tabs (ver.1)

Artists:  A B C D E F G H I J K L M N O P Q R S T U V W X Y Z # 

Endless Rain Tabs (ver.1)

X Japan
Rating:
4/5 (4 votes)

Tabs too difficult? Try these video lessons and learn fast.
                X Japan Endless Rain 
Sony Music 1989

Tuning: Half Down

Intro
Piano - C, G, F, G
        C, G, F, G
        F, F, G, G
        Csus4, C, Csus4, C
        
Verse
  C                 G                 Am                F       G
|---------0-------|---------3-------|---------0-------|-------1-3-------|
|-------1---1-----|-------0---0-----|-------1---1-----|-----1-----3-----|
|-----0-------0---|-----0-------0---|-----2-------2---|---2---------4---|
|---2-----------2-|---0-----------0-|---2-----------2-|-3-------------5-|
|-3---------------|-3---------------|-0---------------|-----------------|
|-----------------|-----------------|-----------------|-----------------|
1 - I'm walking in the rain yuku ate mo naku kizutsuita karada nurashi
2 - nemuri wa mayaku tohou ni kureta kokoro o shizuka ni tokasu
3 - Days of joy, days of sadness slowly pass me by
    As I try to hold you, you are vanishing before me

  C                 G                 Am      F         Gsus4    G
|---------0-------|---------3-------|---------------1-|-------3-------3-|
|-------1---1-----|-------0---0-----|-------1-----1---|-----3-------3---|
|-----0-------0---|-----0-------0---|-----2-----2-----|---5-------4-----|
|---2-----------2-|---0-----------0-|---2-----3-------|-5-------5-------|
|-3---------------|-3---------------|-0---------------|-----------------|
|-----------------|-----------------|-----------------|-----------------|
1 - karamitsuku koori no zawameki koroshi tsuzukete
2 - mai agaru ai o odorasete furueru karada o kioku no
3 - You're just an illusion When I'm awaken, my tears have dried in the 
    sand of sleep I'm a rose blooming in the desert

  F       G         C       E         F       G         Csus4   C
|-------1-3-------|---------------0-|-------1-3-------|-----------------|
|-----1-----3-----|-------1-----0---|-----1-----3-----|-6-----6-5-----5-|
|---2---------4---|-----0-----1-----|---2---------4---|---5-------5-----|
|-3-------------5-|---2-----2-------|-3-------------5-|-----5-------5---|
|-----------------|-3---------------|-----------------|-----------------|
|-----------------|-----------------|-----------------|-----------------|
1 - samayou itsu made mo, until I can forget your love
2 - bara ni tsutsumu I keep my love for you to myself
3 - It's a dream, I'm in love with you, madoromi dakishimete

Chorus
  C       G/B       Am      Am/G      F       C         Dm7     G
|-----------------|-----------------|-------1-------0-|-------1---------|
|-------1-------0-|-------1-------1-|-----1-------1---|-----1-----------|
|-----0-------0---|-----2-------2---|---0-------0-----|---0-----------0-|
|---2-------0-----|---2-------2-----|-3-------2-------|-0-----------0---|
|-3-------2-------|-0---------------|-----------------|-----------0-----|
|-----------------|---------3-------|-----------------|---------3-------|
Endless rain, fall on my heart kokoro no kizu ni
Let me forget all of the hate, all of the sadness

Bridge
  Ab                  Bb                       Eb
|-------4-6p4-------|-------6-8p6-----|---------------|
|-----4-------4-----|-----6-------6---|---------------|
|---5-----------5---|---7-------------|-----7--8------|
|-6---------------6-|-8---------------|-10------------|
|-------------------|-----------------|---------------|
|-------------------|-----------------|---------------|
I awake from my dream
I can't find my way                    without you...


Solo Guitar I

|-------------------|---------------------------------------------|
|-9b11b9--8-9—8h9p8-|---------------------------------------------|
|-------------------|-10—8h10p8-7------------7-10---8-7-----------|
|-------------------|-------------8/10--8-10------------10-8-8/6--|
|-------------------|---------------------------------------------|
|-------------------|---------------------------------------------|

|---------------------------|----------------------------11v--|
|---------------------------|----------------------13-11------|
|-------------------------4-|---------8-7--8/12-10------------|
|-6/10-8----6-5-3---3-5-6---|--6/10-8-------------------------|
|-----------------6---------|---------------------------------|
|---------------------------|---------------------------------|

|-11b13-10------10-11-13|-11-10------------------13b15-11-10-|-----------| 
|-----------------------|----------13-13b15-11---------------|-----------|
|------------12---------|------------------------------------|-13v-13-12-|
|-----------------------|------------------------------------|-----------|
|-----------------------|------------------------------------|-----------|
|-----------------------|------------------------------------|-----------|

|---------------------------------------------------------18-15-16-18-16-|
|---------------13-------13---15----13-15---16-13-15-16------------------|
|----12-13-15------13-15---------15--------------------------------------|
|-15---------------------------------------------------------------------|
|------------------------------------------------------------------------|
|------------------------------------------------------------------------|

|---------------|--------------------|----------------------------|
|-----------8---|--------------------|----------------------------|
|-8--7-8-10-----|-8-------------7-10-|-8---8-7-------------7-10-8-|
|---------------|----8/5----5/9------|---------10-----8-10--------|
|---------------|--------------------|----------------------------|
|---------------|--------------------|----------------------------|

|----------------------------------------------------------|
|-20--18h20p18-—16h18p16--15h16p15--13h15p13—-12h13p12-----|
|-------------------------------------------------------13-|
|----------------------------------------------------------|
|----------------------------------------------------------|
|----------------------------------------------------------|

|-------------------------|------------------------------|
|-16---15-16-18-18b20--16-|-15-16-------15-18-16-15--15--|
|-------------------------|-----------15-----------17----|
|-------------------------|---------17-------------------|
|-------------------------|------------------------------| 
|-------------------------|------------------------------|

|-------15-16----18-15-16-18----20-16-18-20----22-18-20-22----20-|
|-16-18----------------------------------------------------------|
|----------------------------------------------------------------|
|----------------------------------------------------------------|
|----------------------------------------------------------------|
|----------------------------------------------------------------|

|-20b22b20---19---|
|-----------------|
|-----------------|
|-----------------|
|-----------------|
|-----------------| 


Note: I'll just be ending my tab here because after the guitar solo, it
basically repeats itself until it fades away. This also came from the
official score sheet, so there shouldn't be any problems. But if there


Hope you guys enjoy it!!!

Ps. X Japan's the best band in Asia, period...
            
Tabs too difficult? Try these video lessons and learn fast.




comments powered by Disqus
↑ Back to top | Tablatures and chords are parodies/interpretations of the original songs. You may use it for private study, scholarship, research or language learning purposes only