>
 >
Forever Love

Forever Love Bass Tabs

X Japan - Forever Love chords, tabs, tablatures, lyrics

Guitar lessons | Add/correct | Request | Top 50 tabs Artists:  A B C D E F G H I J K L M N O P Q R S T U V W X Y Z 0-9

Forever Love Bass Tabs – X Japan

CD, Sheet music, Poster

Do you like Forever Love? Share with your friends now
Bass TabsTabsTabs v2

FOREVER LOVE (Bassline)
As recorded by X Japan


	



Gtr I (Eb Ab Db Gb) - 'Finger Pick Bass'

  Q=93
 6/8
  Gtr I
  W        W          W        W        H    +E  E   H.
|--------|----------|--------|--------|------------|-------|
|--------|----------|--------|--------|------------|-------|
|--------|----------|--------|--------|-2----(2)-2-|-2-----|
|--------|----------|--------|--------|------------|-------|


  H    +E  E   H    E E   H.        H.        H.        H.
|------------|----------|---------|---------|---------|-------|
|------------|----------|---------|---------|---------|-------|
|------------|----------|---------|---------|---------|-------|
|-2----(2)-2-|-2----2-3-|-4-------|-4-------|-0-------|-2-----|


  H    +E  E   H.        H    +E  E   H    E E   H    +E  E   H.
|------------|---------|------------|----------|------------|-------|
|------------|---------|------------|----------|------------|-------|
|-2----(2)-2-|-2-------|------------|----------|------------|-------|
|------------|---------|-2----(2)-2-|-2----2-3-|-4----(4)-4-|-2-----|


  H    +E  E   H.        H.        +H.        H.        +H.
|------------|---------|---------|----------|---------|--------|
|------------|---------|---------|----------|---------|--------|
|------------|---------|-2-------|-(2)------|-2-------|-(2)----|
|-0----(0)-0-|-2-------|---------|----------|---------|--------|


  W        W        W        W        W        W
|--------|--------|--------|--------|--------|------|
|--------|--------|--------|--------|--------|------|
|--------|--------|--------|--------|--------|------|
|--------|--------|--------|--------|--------|------|


  W        W        W        W        W        W
|--------|--------|--------|--------|--------|------|
|--------|--------|--------|--------|--------|------|
|--------|--------|--------|--------|--------|------|
|--------|--------|--------|--------|--------|------|


  W        W          W        W        H    +E  E   H.
|--------|----------|--------|--------|------------|-------|
|--------|----------|--------|--------|------------|-------|
|--------|----------|--------|--------|-2----(2)-2-|-------|
|--------|----------|--------|--------|------------|-2-----|


  H    +E  E   H.        H    +E  E   H.        H    +E  E   H.
|------------|---------|------------|---------|------------|-------|
|------------|---------|------------|---------|------------|-------|
|------------|---------|-4----(4)-4-|-2-------|------------|-------|
|-4----(4)-4-|-4-------|------------|---------|-2----(2)-2-|-2-----|


  H    +E  E   H.        H    +E  E   H.        H    +E  E   H.
|------------|---------|------------|---------|------------|-------|
|------------|---------|------------|---------|------------|-------|
|-2----(2)-2-|---------|------------|---------|------------|-------|
|------------|-2-------|-4----(4)-4-|-4-------|-0----(0)-0-|-0-----|


  H    +E  E   H.        H    +E  E   H.        H    +E  E   H.
|------------|---------|------------|---------|------------|-------|
|------------|---------|------------|---------|------------|-------|
|------------|---------|------------|---------|-2----(2)-2-|-2-----|
|-2----(2)-2-|-2-------|-0----(0)-0-|-0-------|------------|-------|


  H    +E  E   H.        H    +E  E   H.        H    +E  E   H.
|------------|---------|------------|---------|------------|-------|
|------------|---------|------------|---------|------------|-------|
|------------|---------|------------|---------|------------|-------|
|-2----(2)-2-|-2-------|-4----(4)-4-|-4-------|-0----(0)-0-|-0-----|


  H    +E  E   H.        H    +E  E   H.        E E E E E E   E E E E E E
|------------|---------|------------|---------|-------------|-------------|
|------------|---------|------------|---------|-------------|-------------|
|-2----(2)-2-|-2-------|------------|---------|-------------|-------------|
|------------|---------|-2----(2)-2-|-2-------|-2-2-2-2-2-2-|-2-2-2-2-2-2-|


  H    +E  E   H.        H    +E  E   H.        H    +E  E   H.
|------------|---------|------------|---------|------------|-------|
|------------|---------|------------|---------|------------|-------|
|-2----(2)-2-|-2-------|------------|---------|-6----(6)-6-|-6-----|
|------------|---------|-4----(4)-4-|-4-------|------------|-------|


  H    E E   H.        H    +E  E   H.        H    +E  E   H.
|----------|---------|------------|---------|------------|-------|
|----------|---------|------------|---------|------------|-------|
|----------|---------|-2----(2)-2-|-2-------|------------|-------|
|-0----0-1-|-2-------|------------|---------|-4----(4)-4-|-4-----|


  H    +E  E   H.        H    E E   H.        W        W
|------------|---------|----------|---------|--------|------|
|------------|---------|----------|---------|--------|------|
|-6----(6)-6-|-6-------|----------|---------|--------|------|
|------------|---------|-0----0-1-|-2-------|--------|------|


  W        W        W        W        W        W
|--------|--------|--------|--------|--------|------|
|--------|--------|--------|--------|--------|------|
|--------|--------|--------|--------|--------|------|
|--------|--------|--------|--------|--------|------|


  H    +E  E   H.        H    +E  E   H.        H    +E  E   H.
|------------|---------|------------|---------|------------|-------|
|------------|---------|------------|---------|------------|-------|
|------------|---------|-2----(2)-2-|-2-------|------------|-------|
|-0----(0)-0-|-0-------|------------|---------|-2----(2)-2-|-2-----|


  H    +E  E   H.        H    +E  E   H.        H    +E  E   H.
|------------|---------|------------|---------|------------|-------|
|------------|---------|------------|---------|------------|-------|
|------------|---------|------------|---------|-2----(2)-2-|-2-----|
|-4----(4)-4-|-4-------|-0----(0)-0-|-0-------|------------|-------|


  H    +E  E   H.        E E E E E E   E E E E E E   H    +E  E   H.
|------------|---------|-------------|-------------|------------|-------|
|------------|---------|-------------|-------------|------------|-------|
|------------|---------|-------------|-------------|-2----(2)-2-|-2-----|
|-2----(2)-2-|-2-------|-2-2-2-2-2-2-|-2-2-2-2-2-2-|------------|-------|


  H    +E  E   H.        H    +E  E   H.        H    E E   H.
|------------|---------|------------|---------|----------|-------|
|------------|---------|------------|---------|----------|-------|
|------------|---------|-6----(6)-6-|-6-------|----------|-------|
|-4----(4)-4-|-4-------|------------|---------|-0----0-1-|-2-----|


  H    +E  E   H.        H    +E  E   H.        H    +E  E   H.
|------------|---------|------------|---------|------------|-------|
|------------|---------|------------|---------|------------|-------|
|-2----(2)-2-|-2-------|------------|---------|-6----(6)-6-|-6-----|
|------------|---------|-4----(4)-4-|-4-------|------------|-------|


  H    E E   H.        E E E E E E   E E E E E E   E E E E E E   E E E E E E
|----------|---------|-------------|-------------|-------------|-------------|
|----------|---------|-------------|-------------|-------------|-----------0-|
|----------|---------|-------------|-------------|-------------|-------------|
|-0----0-1-|-2-------|-3-3-3-3-3-3-|-3-3-3-3-3-2-|-0-0-0-0-0-0-|-0-0-0-0-0---|


  H.        H.        H    +E  E   H    +E  E   H    +E  E   H    E E
|---------|---------|------------|------------|------------|----------|
|---------|---------|------------|------------|------------|----------|
|-3-------|-5-------|-7----(7)-7-|------------|------------|--------4-|
|---------|---------|------------|-7----(7)-8-|-9----(9)-9-|-9----4---|


  H    E E   H    E E   H    +E  E   H    +E  E   H    +E  E   H    +E  E
|----------|----------|------------|------------|------------|------------|
|--------4-|-2------2-|------------|------------|-2----(2)-2-|------------|
|------4---|------2---|-2----(2)---|-2----(2)-2-|------------|-2----(2)-3-|
|-2--------|----------|----------2-|------------|------------|------------|


  H    +E  E   H    E E   H    E E   H    +E  E   H    +E  E   H    E E
|------------|----------|----------|------------|------------|----------|
|------------|----------|--------4-|-2----(2)-2-|-0----(0)-0-|-0------0-|
|-4----(4)-4-|-4------4-|------4---|------------|------------|------0---|
|------------|------4---|-2--------|------------|------------|----------|


  H    +E  E   H.        H    +E  E   Q.   E E E   H    +E  E   H    E E
|------------|---------|------------|------------|------------|----------|
|-2----(2)---|-2-------|-0----(0)-0-|-0----0---0-|------------|----------|
|----------2-|---------|------------|--------0---|-0----(0)-0-|-0----0-0-|
|------------|---------|------------|------------|------------|----------|


  H    +E  E   H    E E   H    +E  E   H    +E  E   H    +E  E   H    E E
|------------|----------|------------|------------|------------|----------|
|------------|----------|------------|------------|-0----(0)-0-|-0------0-|
|------------|----------|------------|------------|------------|------0---|
|-0----(0)-0-|-0----0-1-|-2----(2)-2-|-2----(2)-2-|------------|----------|


  H    +E  E   H    +E  E   H    +E  E   H    E E   H.        H.
|------------|------------|------------|----------|---------|-------|
|------------|------------|------------|----------|---------|-------|
|-0----(0)-0-|-0----(0)-0-|------------|----------|---------|-0-----|
|------------|------------|-0----(0)-0-|-0----0-2-|-3-------|-------|


  W        W        W        W        W        W
|--------|--------|--------|--------|--------|------|
|--------|--------|--------|--------|--------|------|
|--------|--------|--------|--------|--------|------|
|--------|--------|--------|--------|--------|------|


  W        W        W        W        W        W
|--------|--------|--------|--------|--------|------|
|--------|--------|--------|--------|--------|------|
|--------|--------|--------|--------|--------|------|
|--------|--------|--------|--------|--------|------|


  W        W        W        W        W        W
|--------|--------|--------|--------|--------|------|
|--------|--------|--------|--------|--------|------|
|--------|--------|--------|--------|--------|------|
|--------|--------|--------|--------|--------|------|


  H    +E  E   H.        H    +E  E   H.        H    +E  E   H.
|------------|---------|------------|---------|------------|-------|
|------------|---------|------------|---------|------------|-------|
|-2----(2)-2-|-2-------|------------|---------|-6----(6)-6-|-6-----|
|------------|---------|-4----(4)-4-|-4-------|------------|-------|


  H    E E   H.        H    +E  E   H.        H    +E  E   H.
|----------|---------|------------|---------|------------|-------|
|----------|---------|------------|---------|------------|-------|
|----------|---------|-2----(2)-2-|-2-------|------------|-------|
|-0----0-1-|-2-------|------------|---------|-4----(4)-4-|-4-----|


  H    +E  E   H.        H    E E   H.        H    +E  E   H.
|------------|---------|----------|---------|------------|-------|
|------------|---------|----------|---------|------------|-------|
|-6----(6)-6-|-6-------|----------|---------|------------|-------|
|------------|---------|-0----0-1-|-2-------|-0----(0)-0-|-0-----|


  H    +E  E   H.        H    +E  E   H.        H    +E  E   H.
|------------|---------|------------|---------|------------|-------|
|------------|---------|------------|---------|------------|-------|
|-2----(2)-2-|-2-------|------------|---------|------------|-------|
|------------|---------|-2----(2)-2-|-2-------|-4----(4)-4-|-4-----|


  H    +E  E   H.        H    +E  E   H.        H    +E  E   H.
|------------|---------|------------|---------|------------|-------|
|------------|---------|------------|---------|------------|-------|
|------------|---------|-2----(2)-2-|-2-------|------------|-------|
|-0----(0)-0-|-0-------|------------|---------|-2----(2)-2-|-2-----|


  E E E E E E   E E E E E E   H.        +H.        H.        +H.
|-------------|-------------|-4-------|-(4)------|---------|--------|
|-------------|-------------|---------|----------|-6-------|-(6)----|
|-------------|-------------|---------|----------|---------|--------|
|-2-2-2-2-2-2-|-2-2-2-2-2-2-|---------|----------|---------|--------|


  H.        +H.        H.        H.        H.        +H.
|-8-------|-(8)------|---------|---------|---------|--------|
|---------|----------|---------|---------|-9-------|-(9)----|
|---------|----------|-7-------|-9-------|---------|--------|
|---------|----------|---------|---------|---------|--------|


   H.         +H.         H.         +H.         H.         H.
|----------|-----------|----------|-----------|----------|--------|
|----------|-----------|-13-------|-(13)------|----------|--------|
|-11-------|-(11)------|----------|-----------|----------|-11-----|
|----------|-----------|----------|-----------|-12-------|--------|


  H    +E  E   H.        H    +E  E   H.        H    +E  E   H.
|------------|---------|------------|---------|------------|-------|
|------------|---------|------------|---------|------------|-------|
|------------|---------|------------|---------|-6----(6)-6-|-6-----|
|-7----(7)-7-|-7-------|-4----(4)-4-|-4-------|------------|-------|


  H    E E   H.        H    +E  E   H.        H    +E  E   H.
|----------|---------|------------|---------|------------|-------|
|----------|---------|------------|---------|------------|-------|
|----------|---------|-2----(2)-2-|-2-------|------------|-------|
|-0----0-1-|-2-------|------------|---------|-4----(4)-4-|-4-----|


  H    +E  E   H.        H    E E   H.        H    +E  E   H.
|------------|---------|----------|---------|------------|-------|
|------------|---------|----------|---------|------------|-------|
|-6----(6)-6-|-6-------|----------|---------|-2----(2)-2-|-2-----|
|------------|---------|-0----0-1-|-2-------|------------|-------|


  H    +E  E   H    E E   H    +E  E   H.        H    +E  E   Q.   Q.
|------------|----------|------------|---------|------------|-----------|
|------------|----------|------------|---------|------------|-----------|
|------------|----------|------------|---------|------------|-----------|
|-2----(2)-2-|-2----2-3-|-4----(4)-4-|-2-------|-0----(0)-0-|-2----2----|


                                  Q=60
  H.        +H.        +H.        +H.
|---------|----------|----------|--------*|
|---------|----------|----------|--------*|
|-2-------|-(2)------|-(2)------|-(2)----*|
|---------|----------|----------|--------*|



Duration Legend
---------------
W - whole; H - half; Q - quarter; E - 8th; S - 16th; T - 32nd; X - 64th; a - acciaccatura
+ - note tied to previous; . - note dotted; .. - note double dotted
Uncapitalized letters represent notes that are staccato (1/2 duration)
Irregular groupings are notated above the duration line
Duration letters will always appear directly above the note/fret number it represents the
duration for.  Duration letters with no fret number below them represent rests.  Multi-
bar rests are notated in the form Wxn, where n is the number of bars to rest for.  Low
melody durations appear below the staff

Tablature Legend
----------------
 h   - hammer-on
 p   - pull-off
 b   - bend
 pb  - pre-bend
 r   - bend release (if no number after the r, then release immediately)
 /\  - slide into or out of (from/to "nowhere")
 s   - legato slide
 S   - shift slide
 - natural harmonic
[n]  - artificial harmonic
n(n) - tapped harmonic
 ~   - vibrato
 tr  - trill
 T   - tap
 TP  - trem. picking
 PM  - palm muting
\n/  - tremolo bar dip; n = amount to dip
 \n  - tremolo bar down
 n/  - tremolo bar up
/n\  - tremolo bar inverted dip
 =   - hold bend; also acts as connecting device for hammers/pulls
 <> - volume swell (louder/softer)
 x   - on rhythm slash represents muted slash
 o   - on rhythm slash represents single note slash

Misc Legend
-----------
 |  - bar
||  - double bar
||o - repeat start
o|| - repeat end
*|  - double bar (ending)
 :  - bar (freetime)
 $  - Segno
 &  - Coda
Tempo markers -  = BPM(8/16=s8/s16), where s8 = swing 8ths, s16 = swing 16ths





Comments


Popular X Japan tabs & chords
Easy Fight Rambling Bass Tabs
Dahlia Tabs
Endless Rain Tabs
Endless Rain (Solo) Tabs
Forever Love Tabs
Joker Tabs
Kurenai Tabs
Love Replica 1 Tabs
Orgasm Tabs
Without You Intro Tabs


Song lyrics



↑ Back to top | Tablatures and chords are parodies/interpretations of the original songs. You may use it for private study, scholarship, research or language learning purposes only
© 2014 AZChords.com Contact us | Privacy policy | DMCA | Add/correct tabs | Request tabs | Top 50 tabs