>
 >
Kurenai

Kurenai Guitar Tabs

X Japan - Kurenai chords, tabs, tablatures, lyrics

Guitar lessons | Add/correct | Request | Top 50 tabs Artists:  A B C D E F G H I J K L M N O P Q R S T U V W X Y Z 0-9

Kurenai Guitar Tabs – X Japan

CD, Sheet music, Poster

Do you like Kurenai? Share with your friends now
Bass TabsBass Tabs v2ChordsTabs

KURENAI
As recorded by X Japan


	



Gtr I (Eb Ab Db Gb Bb Eb) - 'Guitar 1'
Gtr II (Eb Ab Db Gb Bb Eb) - 'Guitar 2'
Gtr III (Eb Ab Db Gb Bb Eb) - 'Slow Strings'

  Q=80
 2/4    4/4
  Gtr III
  W      Q.   E Q.    E    Q   E E H      Q.   E  Q  Q    W
|------|-8----7-8----10-|-12--10-8-7----|-5----7-10--8--|-7----|
|------|----------------|---------------|---------------|------|
|------|----------------|---------------|---------------|------|
|------|----------------|---------------|---------------|------|
|------|----------------|---------------|---------------|------|
|------|----------------|---------------|---------------|------|


  Q.   E Q.    E    Q   E E H      H    Q  Q    W
|-8----7-8----10-|-12--10-8-7----|-5----3--7--|-5----|
|----------------|---------------|------------|------|
|----------------|---------------|------------|------|
|----------------|---------------|------------|------|
|----------------|---------------|------------|------|
|----------------|---------------|------------|------|


  Q=100
  Gtr I
   E  E E E E E E E   E E E E E E S S E   E E E E E E E E   E E E E E E E E
|-------------------|-------------------|-----------------|------------------|
|--1----3---1-------|-------1-----3-1---|-1---3---1-------|---------0--------|
|--4--2---2---2---2-|-4-2-----2-------2-|-4-2---2---2---2-|-4-2---0---1---1--|
|---------------2---|-----2-----2-------|-------------2---|-----2-------2----|
|--0----------------|-------------------|-0---------------|------------------|
|-------------------|-------------------|-----------------|---------0--------|
|
| Gtr III
| +W                  W                   W                 W
|-(5)---------------|-------------------|-----------------|------------------|
|-------------------|-------------------|-----------------|------------------|
|-------------------|-------------------|-----------------|------------------|
|-------------------|-------------------|-----------------|------------------|
|-------------------|-------------------|-----------------|------------------|
|-------------------|-------------------|-----------------|------------------|


  S S E E E E E E E   E E E E E E E E   E E E E E E E E   E E E E E E E E
|-------------------|-----------------|-----------------|------------------|
|-1-----3---1-------|-5-------5-------|-----------------|-5-------5-3---3--|
|-2---2---2---2---2-|---5---5---4-2-4-|-4---7---4---7---|---4---4-----1----|
|-5-------------3---|-----7-----------|---6---6---6---6-|-----6------------|
|-------------------|-----------------|-----------------|------------------|
|-------------------|-----------------|-0---------------|------------------|


  E E E E E E E E   E E E E E E S S E   E E E E E E E E   E E E E E E E E
|-----------------|-------------------|-----------------|------------------|
|-1---3---1-------|-------1-----3-1---|-1---3---1-------|---------0--------|
|-4-2---2---2---2-|-4-2-----2-------2-|-4-2---2---2---2-|-4-2---0---1---1--|
|-------------2---|-----2-----2-------|-------------2---|-----2-------2----|
|-0---------------|-------------------|-0---------------|------------------|
|-----------------|-------------------|-----------------|---------0--------|


  S S E E E E E E E   E E E E E E E E   E E E E E E E E   E E E E H
|-------------------|-----------------|-----------------|-0-------0----|
|-1-----3-----5-3---|-5-----5-----1---|-0---3-------3---|---0---0------|
|-2---2---2-------2-|---5-----4-2---2-|---1---1-4-1---1-|-----1--------|
|-5---------3-------|-----7-----------|-----------------|--------------|
|-------------------|-----------------|---------2-------|--------------|
|-------------------|-----------------|-0---------------|--------------|


  E E E E  E  E E E   E E  E E  E  E   E   E
|-----0----0----0---|---0--3----3------3-----|
|---1---1-----1-----|-1------5-----5-------1-|
|-2---------------2-|------------------------|
|-------------------|------------------------|
|-------------------|------------------------|
|-------------------|------------------------|
|
| Gtr II
| E E E E +Q.     E   E E  E E  E  E  +E   E
|-5---7-5-(5)-------|-8---10-8-12-12-(12)----|
|---5-------------5-|---8--------------------|
|-------------------|---------------------12-|
|-------------------|------------------------|
|-------------------|------------------------|
|-------------------|------------------------|


   E  E +E  E E E E E   E  E E  E E E Q
|---------------------|---------0---------|
|-----0-(0)-3-3---3---|------1--------0---|
|--0------------4---4-|----2--------1-----|
|---------------------|-3---------2-------|
|---------------------|-------------------|
|---------------------|-------------------|
|
|  E  E  E  E Q   Q     E  E E  E E E E E
|-------------7-------|-------------------|
|-------10--8-----8---|-------------------|
|-12------------------|------9----9---9---|
|----12---------------|---10---10---9---9-|
|---------------------|-------------------|
|---------------------|-------------------|


   E E E E E  E E E   E E  E E  E  E   E   E
|------0---0----0---|---0--3----3------3-----|
|----1---1----1-----|-1------5-----5-------1-|
|--2--------------2-|------------------------|
|-------------------|------------------------|
|-------------------|------------------------|
|-------------------|------------------------|
|
|  E E E E Q.     E   Q    E E  E  E  +E   E
|------7-5-5--------|-8---10-8-12------------|
|-10--------------5-|------------------------|
|----9--------------|-------------12-(12)-12-|
|-------------------|------------------------|
|-------------------|------------------------|
|-------------------|------------------------|


   E  E  E E  E E E E   E E E  E  S  S E  E E
|----------3----------|-----7--5--7--5---------|
|-----0--3------1-----|---5------------5----5--|
|--0----------------1-|-2-----------------5----|
|-------------3---2---|------------------------|
|---------------------|------------------------|
|---------------------|------------------------|
|
|  E  E  Q    Q   E E   E E E  E  S  S E  E E
|---------------------|---8--------------------|
|---------------------|-------10-12-10---10----|
|-12----12---10---9-9-|-9---9----------9----9--|
|----12---------------|------------------------|
|---------------------|------------------------|
|---------------------|------------------------|


   E E E E E E  E E   E E  E E  E  E  E  E
|-------------------|------3----3-----3----|
|------5---5----5---|---5----5-----5-----1-|
|----5---5---5------|-5--------------------|
|--7--------------7-|----------------------|
|-------------------|----------------------|
|-------------------|----------------------|
|
|  E E E E E E  E E   E E  E E  E  E  E  E
|------7-5-8--------|-8---10-8-12----------|
|-10-----------10---|---8------------13----|
|----9-------9----9-|-------------12----12-|
|-------------------|----------------------|
|-------------------|----------------------|
|-------------------|----------------------|


   E  E  E E E E E E   E E Q  E E Q
|--------------------|---------------|
|-----0--3-3-3---3---|-----1------0--|
|--0-----------4---4-|---2------1----|
|--------------------|-3------2------|
|--------------------|---------------|
|--------------------|---------------|
|
|  E  E  E E E E Q     E E Q  E E Q
|------------7-------|---------------|
|-------10-8-----8---|-6---6--5---5--|
|-12-----------7-----|---5------4----|
|----12--------------|---------------|
|--------------------|---------------|
|--------------------|---------------|


  E E E E E E E E   E E  E E  E  E  E  E
|-----0---0---0---|---0--3----3-----3----|
|---1---1---1-----|-1------5-----5-----1-|
|-2-------------2-|----------------------|
|-----------------|----------------------|
|-----------------|----------------------|
|-----------------|----------------------|
|
| E E E E E E E E   E E  E E  E  E  E  E
|-5---7-5-5---5---|-8---10---12----------|
|---5-------5---5-|---8----8-------13----|
|-----------------|-------------12----12-|
|-----------------|----------------------|
|-----------------|----------------------|
|-----------------|----------------------|


  Q=80                Q=70
   E  E  E E  Q  Q     H.      S S S S
|----------3--------|--7-------7-5-----|
|-----0--3----------|--5-----------5---|
|--0----------5--4--|--5-------------5-|
|-------------3--2--|--7---------------|
|-------------------|------------------|
|-------------------|------------------|
|
|  E  E  Q    Q  Q     W
|-------------------|------------------|
|-------------------|------------------|
|-12----12---10--9--|--9---------------|
|----12------10--9--|-10---------------|
|-------------------|-12---------------|
|-------------------|------------------|


  Q=300
   H    Q  Q    W                Q   Q  +E  E +Q     W
|--7----------|----------------|-------------------|----------------|
|--5----------|----------------|-------------------|----------------|
|--5-------4--|-5--------------|-----5--(5)-4-(4)--|-2--------------|
|--7----------|----------------|-------------------|----------------|
|-------------|----------------|-------------------|----------------|
|-------------|----------------|-------------------|----------------|
|
|  H    H       Q  E E E E E E   E E Q  +E  E +Q     Q  E E E E E E
|-------------|----------------|-------------------|----------------|
|-------------|----------------|-------------------|----------------|
|--9----------|-2--------------|-----2--(2)-0-(0)--|----------------|
|-10----------|-2--------------|-----2--(2)-0-(0)--|-3--------------|
|-12----------|-0--0-0-0-0-0-0-|-0-0---------------|-3--------------|
|-------------|----------------|-------------------|-1--1-1-1-1-1-1-|
|
| Gtr III
|  H    H       W                W                   W
|-------------|----------------|-------------------|----------------|
|-------5-----|----------------|-------------------|----------------|
|-------------|----------------|-------------------|----------------|
|-------------|----------------|-------------------|----------------|
|-------------|----------------|-------------------|----------------|
|-------------|----------------|-------------------|----------------|


  Q.   E +Q   Q    W                Q.     E +Q     Q     Q.   E +Q   Q
|----------------|----------------|-0-------------------|----------------|
|-------------3--|-1--------------|--------3-(3)----1---|----------------|
|-4----5-(5)-----|----------------|---------------------|-2----1-(1)--2--|
|----------------|----------------|---------------------|----------------|
|----------------|----------------|---------------------|----------------|
|----------------|----------------|---------------------|----------------|
|
| Q.   E +Q   Q    Q  E E E E E E   E  E Q   +E  E +Q     Q.   E +Q   Q
|----------------|----------------|---------------------|----------------|
|----------------|----------------|---------------------|-1----0-(0)--1--|
|-0----2-(2)--0--|-2--------------|------2---(2)-2-(2)--|----------------|
|-0----2-(2)--0--|-2--------------|------2---(2)-2-(2)--|----------------|
|----------------|-0--0-0-0-0-0-0-|-0--0-0---(0)-0-(0)--|----------------|
|----------------|----------------|---------------------|----------------|


  Q.   E +Q   Q    E E E E E E E E   E E H    Q    Q  E E E E E E
|----------------|-----------------|-------------|----------------|
|-------------3--|-----------------|-------------|----------------|
|-4----5-(5)-----|-5---------------|-----5----4--|-2--------------|
|----------------|-----------------|-------------|----------------|
|----------------|-----------------|-------------|----0-0-0-0-0-0-|
|----------------|-5-5-5-5-5-5-5-5-|-5-5---------|----------------|
|
| Q.   E +Q   Q    Q   E E E E E E   E E H    Q    Q  E E E E E E
|----------------|-----------------|-------------|----------------|
|-3----1-(1)--3--|-----------------|-----5----3--|-1--------------|
|------2-(2)--4--|-----------------|-----5----4--|-2--------------|
|----------------|-----------------|-------------|----------------|
|----------------|-0---0-0-0-0-0-0-|-0-0---------|----0-0-0-0-0-0-|
|----------------|-----------------|-------------|----------------|


  Q.   E +Q   Q    Q  E E E E E E   E E H    Q    H       Q   Q
|----------------|----------------|-------------|----------------|
|-------------3--|-1--------------|-----1----0--|----------------|
|-4----5-(5)-----|----------------|-------------|-2-------1---2--|
|----------------|----------------|-------------|----------------|
|----------------|----0-0-0-0-0-0-|-0-0---------|----------------|
|----------------|----------------|-------------|----------------|
|
| Q.   E +Q   Q    Q  E E E E E E   E E H    Q    Q.   E +Q   Q
|----------------|----------------|-----0-------|----------------|
|-3----5-(5)-----|----------------|-----1----3--|-1----0-(0)--1--|
|-4----5-(5)--4--|-2--------------|----------4--|-2----1-(1)--2--|
|-5----5-(5)-----|-2--------------|-------------|----------------|
|----------------|-0--0-0-0-0-0-0-|-0-0---------|----------------|
|----------------|----------------|-------------|----------------|


  Gtrs I, II
  H    Q  E E   E E Q  Q  E E   Q  E E E E E E   E E Q  Q  E E
|-------------|---------------|----------------|---------------|
|-------------|---------------|----------------|---------------|
|-4----5------|-----7--5------|-4--------------|-----7--5------|
|-------------|-----7--5------|-4--------------|-----7--5------|
|---------5-7-|---------------|------------5-7-|---------------|
|-------------|-5-5-------5-5-|----5-5-5-5-----|-5-5-------5-5-|


  Q  E E E E E E   E E Q  Q  E E   Q  E E E E E E   E E Q  +E  E +Q
|----------------|---------------|----------------|-------------------|
|----------------|---------------|----------------|-------------------|
|-4--------------|-----7--5------|-4--------------|-----7--(7)-5-(5)--|
|-4--------------|-----7--5------|-4--------------|-----7--(7)-5-(5)--|
|------------5-7-|---------------|------------5-7-|-------------------|
|----5-5-5-5-----|-5-5-------5-5-|----5-5-5-5-----|-5-5---------------|


  Gtr I
  Q.   E +Q   E E   Q  E E E E E E   E E H    Q    Q  E E E E E E
|-----------------|----------------|-------------|----------------|
|-----------------|----------------|-------------|----------------|
|-4----2-(2)--0-2-|----------------|-------------|----------------|
|-4----2-(2)--0-2-|----------------|-----2----0--|----------------|
|-----------------|-0--0-0-0-0-0-0-|-0-0---------|-3--0-0-0-0-0-0-|
|-----------------|----------------|-------------|----------------|
|
| Gtr II
| Q.   E +Q   E E   Q  E E E E E E   E E H    Q    Q  E E E E E E
|-----------------|----------------|-------------|----------------|
|-----------------|----------------|-------------|----------------|
|-4----2-(2)--0-2-|----------------|-------------|----------------|
|-4----2-(2)--0-2-|----------------|-------------|----------------|
|-----------------|-0--0-0-0-0-0-0-|-0-0-3----2--|-3--0-0-0-0-0-0-|
|-----------------|----------------|-------------|----------------|


  E E H    Q    Q  E E E E E E   Q  E E E E E E   E E E E E E E E
|-------------|----------------|----------------|-----------------|
|-------------|----------------|----------------|-----------------|
|-------------|----------------|-0--------------|-----------------|
|-----2----0--|-3--------------|----------------|-----------------|
|-0-0---------|----------------|----------------|-0-0-0-0-0-0-0-0-|
|-------------|----1-1-1-1-1-1-|----3-3-3-3-3-3-|-----------------|
|
| E E H    Q    Q  E E E E E E   Q  E E E E E E   Q   E E E E E E
|-------------|----------------|----------------|-----------------|
|-------------|----------------|----------------|-----------------|
|-------------|----------------|----------------|-----------------|
|-------------|----------------|----------------|-----------------|
|-0-0-3----2--|----------------|----------------|-0---0-0-0-0-0-0-|
|-------------|-1--1-1-1-1-1-1-|-3--3-3-3-3-3-3-|-----------------|


  E E H    Q    Q  E E E E E E   E E H    Q    Q  E E E E E E
|-------------|----------------|-------------|----------------|
|-------------|----------------|-------------|----------------|
|-------------|----------------|-------------|----------------|
|-----2----0--|-2--------------|-----2----0--|-2--------------|
|-0-0---------|----0-0-0-0-0-0-|-0-0---------|----0-0-0-0-0-0-|
|-------------|----------------|-------------|----------------|
|
| E E H    Q    Q  E E E E E E   E E H    Q    Q  E E E E E E
|-------------|----------------|-------------|----------------|
|-------------|----------------|-------------|----------------|
|-------------|----------------|-------------|----------------|
|-------------|----------------|-------------|----------------|
|-0-0-3----2--|-3--0-0-0-0-0-0-|-0-0-3----2--|-3--0-0-0-0-0-0-|
|-------------|----------------|-------------|----------------|


  E E H    Q    Q  E E E E E E   Q  E E E E E E   E E E E E E E E
|-------------|----------------|----------------|-----------------|
|-------------|----------------|----------------|-----------------|
|-------------|----------------|-0--------------|-----------------|
|-----2----0--|-3--------------|----------------|-----------------|
|-0-0---------|----------------|----------------|-0-0-0-0-0-0-5-7-|
|-------------|----1-1-1-1-1-1-|----3-3-3-3-3-3-|-----------------|
|
| E E H    Q    Q  E E E E E E   Q  E E E E E E   E E E E E E E E
|-------------|----------------|----------------|-----------------|
|-------------|----------------|----------------|-----------------|
|-------------|----------------|----------------|-----------------|
|-------------|----------------|----------------|-----------------|
|-0-0-3----2--|-3--------------|----------------|-0-0-0-0-0-0-0-0-|
|-------------|----1-1-1-1-1-1-|-3--3-3-3-3-3-3-|-----------------|


  E E Q   Q  Q    Q  E E E E E E   Q  E E E E E E   Q  E E E E E E
|---------------|----------------|----------------|----------------|
|---------------|----------------|----------------|----------------|
|---------------|----------------|----------------|----------------|
|---------------|----------------|----------------|----------------|
|-5-7-5---3-----|-0--0-0-0-0-0-0-|-2--2-2-2-2-2-2-|-3--3-3-3-3-3-3-|
|------------3--|----------------|----------------|----------------|
|
| E E E E Q  Q    Q  E E E E E E   Q  E E E E E E   Q  E E E E E E
|---------------|----------------|----------------|----------------|
|---------------|----------------|----------------|----------------|
|---------------|----------------|----------------|----------------|
|---------------|----------------|----------------|----------------|
|-0-0-0-0-0-----|----------------|----------------|-0--0-0-0-0-0-0-|
|------------3--|-1--1-1-1-1-1-1-|-3--3-3-3-3-3-3-|----------------|


  E E E E Q  Q    Q  Q  Q  Q    Q  Q  Q  Q    Q.    E  +Q    Q
|---------------|-------------|-------------|-4----12-(12)--12--|
|---------------|-------------|-------------|------12-(12)--12--|
|---------------|-------------|----2-----2--|-------------------|
|---------------|----5-----5--|-4-----4-----|-------------------|
|-3-3-3-3-3--5--|-7-----7-----|-------------|-------------------|
|---------------|-------------|-------------|-------------------|
|
| E E E E Q  Q    Q  Q  Q  Q    Q  Q  Q  Q    Q.    E  +Q    Q
|---------------|-------------|-------------|-------7--(7)---5--|
|---------------|-------------|-------------|-5-----------------|
|---------------|-------------|-------------|-------------------|
|---------------|----2-----2--|-0--4-----4--|-------------------|
|-0-0-0-0-0--2--|-3-----3-----|-------5-----|-------------------|
|---------------|-------------|-------------|-------------------|


   W          Q  E E E E E E   Q  E E E E E E   Q  E E E E E E
|-12--------|----------------|----------------|----------------|
|-12--------|----------------|----------------|----------------|
|-----------|----------------|----------------|----------------|
|-----------|----------------|----------------|----------------|
|-----------|-0--0-0-0-0-0-0-|-2--2-2-2-2-2-2-|-3--3-3-3-3-3-3-|
|-----------|----------------|----------------|----------------|
|
|  W          Q  E E E E E E   Q  E E E E E E   Q  E E E E E E
|--4--------|----------------|----------------|----------------|
|-----------|----------------|----------------|----------------|
|-----------|----------------|----------------|----------------|
|-----------|----------------|----------------|----------------|
|-----------|----------------|----------------|-0--0-0-0-0-0-0-|
|-----------|-1--1-1-1-1-1-1-|-3--3-3-3-3-3-3-|----------------|


  E E E E Q  Q    Q  E E E E E E   Q  E E E E Q    Q  E E E E E E
|---------------|----------------|---------------|----------------|
|---------------|----------------|---------------|----------------|
|---------------|----------------|------------4--|-5--------------|
|---------------|----------------|---------------|----------------|
|-3-3-3-3-3--2--|-0--0-0-0-0-0-0-|-2--2-2-2-2----|----------------|
|---------------|----------------|---------------|----5-5-5-5-5-5-|
|
| E E E E Q  Q    Q  E E E E E E   Q  E E E E Q    Q  E E E E E E
|---------------|----------------|---------------|----------------|
|---------------|----------------|---------------|----------------|
|---------------|----------------|---------------|----------------|
|---------------|----------------|------------5--|-7--------------|
|-0-0-0-0-0-----|----------------|---------------|-7--------------|
|------------3--|-1--1-1-1-1-1-1-|-3--3-3-3-3----|-5--5-5-5-5-5-5-|


  E E H    Q    Q  E   E   E   E   E   E     Q.   E +Q   Q
|-------------|----------------------------|----------------|
|-------------|----------------------------|-------------3--|
|-----5----4--|-2--------------------------|-4----5-(5)-----|
|-------------|----------------------------|----------------|
|-------------|----0---0---0---0---0---0---|----------------|
|-5-5---------|----------------------------|----------------|
|
| E E H    Q    Q  S S S S S S S S S S S S   Q.   E +Q   Q
|-------------|----------------------------|----------------|
|-------------|----------------------------|----------------|
|-------------|----------------------------|----------------|
|-----7----5--|-3--5---5---5---5---5---5---|-5----7-(7)--9--|
|-------------|----------------------------|----------------|
|-5-5---------|----------------------------|----------------|


  Q  E E E E E E   E E H    Q    Q.   E +Q   Q    Q.   E  Q   E E
|----------------|-------------|----------------|-----------------|
|-1--------------|-----1----0--|----------------|-----------------|
|----------------|-------------|-2----1-(1)--2--|-4----5----------|
|----------------|-------------|----------------|-----------------|
|----0-0-0-0-0-0-|-0-0---------|----------------|-------------5-7-|
|----------------|-------------|----------------|-----------------|
|
| Q  E E E E E E   E E H    Q    Q.   E +Q   Q    Q.   E +Q   Q
|----------------|-------------|----------------|-----------------|
|----------------|-------------|----------------|-----------------|
|----------------|-------------|----------------|-----------------|
|-7--------------|-----7----5--|-3----2-(2)--3--|-5----7-(7)------|
|----------------|-------------|----------------|-----------------|
|----5-5-5-5-5-5-|-5-5---------|----------------|-----------------|


  E E Q  Q  E E   Q  E E E E E E   E E Q  Q  E E   Q  E E E E E E
|---------------|----------------|---------------|----------------|
|---------------|----------------|-----3--1------|----------------|
|-----7--5------|-4--------------|-----2--0------|-4--------------|
|-----7--5------|-4--4-4-4-2-0-2-|---------------|-4--4-4-4-2-0-2-|
|---------------|----------------|-0-0-------0-0-|----------------|
|-5-5-------5-5-|----------------|---------------|----------------|
|
| E E Q  Q  E E   Q  E E E E E E   E E Q  Q  E E   Q  E E E E E E
|---------------|----------------|---------------|----------------|
|---------------|----------------|---------------|----------------|
|-----7--5------|-4--------------|-----7--5------|-4--------------|
|-----7--5------|-4--------------|-----7--5------|-4--------------|
|---------------|------------5-7-|---------------|------------5-7-|
|-5-5-------5-5-|----5-5-5-5-----|-5-5-------5-5-|----5-5-5-5-----|


  E E Q  Q  E E   Q  E E E E E E   E E Q  +E  E +Q     Q.   E +Q   E E
|---------------|----------------|-------------------|-----------------|
|-----3--1------|----------------|-----3--(3)-1-(1)--|-----------------|
|-----2--0------|-4--------------|-----2--(2)-0-(0)--|-4----2-(2)------|
|---------------|-4--4-4-4-2-0-2-|-------------------|-4----2-(2)--0-2-|
|-0-0-------0-0-|----------------|-0-0---------------|-----------------|
|---------------|----------------|-------------------|-----------------|
|
| E E Q  Q  E E   Q  E E E E E E   E E Q  +E  E +Q     Q.   E +Q   E E
|---------------|----------------|-------------------|-----------------|
|---------------|----------------|-------------------|-----------------|
|-----7--5------|-4--------------|-----7--(7)-5-(5)--|-4----2-(2)------|
|-----7--5------|-4--------------|-----7--(7)-5-(5)--|-4----2-(2)--0-2-|
|---------------|------------5-7-|-------------------|-----------------|
|-5-5-------5-5-|----5-5-5-5-----|-5-5---------------|-----------------|


  Q  E E E E E E   E E H    Q    Q  E E E E E E   E E H    Q
|----------------|-------------|----------------|-------------|
|----------------|-------------|----------------|-------------|
|----------------|-------------|----------------|-------------|
|----------------|-----2----0--|----------------|-----2----0--|
|-0--0-0-0-0-0-0-|-0-0---------|-3--0-0-0-0-0-0-|-0-0---------|
|----------------|-------------|----------------|-------------|
|
| Q  E E E E E E   E E H    Q    Q  E E E E E E   E E H    Q
|----------------|-------------|----------------|-------------|
|----------------|-------------|----------------|-------------|
|----------------|-------------|----------------|-------------|
|----------------|-------------|----------------|-------------|
|-0--0-0-0-0-0-0-|-0-0-3----2--|-3--0-0-0-0-0-0-|-0-0-3----2--|
|----------------|-------------|----------------|-------------|


  Q  E E E E E E   Q  E E E E E E   E E E E E E E E   E E H    Q
|----------------|----------------|-----------------|-------------|
|----------------|----------------|-----------------|-------------|
|----------------|-0--------------|-----------------|-------------|
|-3--------------|----------------|-----------------|-----2----0--|
|----------------|----------------|-0-0-0-0-0-0-0-0-|-0-0---------|
|----1-1-1-1-1-1-|----3-3-3-3-3-3-|-----------------|-------------|
|
| Q  E E E E E E   Q  E E E E E E   Q   E E E E E E   E E H    Q
|----------------|----------------|-----------------|-------------|
|----------------|----------------|-----------------|-------------|
|----------------|----------------|-----------------|-------------|
|----------------|----------------|-----------------|-------------|
|----------------|----------------|-0---0-0-0-0-0-0-|-0-0-3----2--|
|-1--1-1-1-1-1-1-|-3--3-3-3-3-3-3-|-----------------|-------------|


  Q  E E E E E E   E E H    Q    Q  E E E E E E   E E H    Q
|----------------|-------------|----------------|-------------|
|----------------|-------------|----------------|-------------|
|----------------|-------------|----------------|-------------|
|-2--------------|-----2----0--|-2--------------|-----2----0--|
|----0-0-0-0-0-0-|-0-0---------|----0-0-0-0-0-0-|-0-0---------|
|----------------|-------------|----------------|-------------|
|
| Q  E E E E E E   E E H    Q    Q  E E E E E E   E E H    Q
|----------------|-------------|----------------|-------------|
|----------------|-------------|----------------|-------------|
|----------------|-------------|----------------|-------------|
|----------------|-------------|----------------|-------------|
|-3--0-0-0-0-0-0-|-0-0-3----2--|-3--0-0-0-0-0-0-|-0-0-3----2--|
|----------------|-------------|----------------|-------------|


  Q  E E E E E E   Q  E E E E E E   E E E E E E E E   E E Q   Q  Q
|----------------|----------------|-----------------|---------------|
|----------------|----------------|-----------------|---------------|
|----------------|-0--------------|-----------------|---------------|
|-3--------------|----------------|-----------------|---------------|
|----------------|----------------|-0-0-0-0-0-0-5-7-|-5-7-5---3-----|
|----1-1-1-1-1-1-|----3-3-3-3-3-3-|-----------------|------------3--|
|
| Q  E E E E E E   Q  E E E E E E   E E E E E E E E   E E E E Q  Q
|----------------|----------------|-----------------|---------------|
|----------------|----------------|-----------------|---------------|
|----------------|----------------|-----------------|---------------|
|----------------|----------------|-----------------|---------------|
|-3--------------|----------------|-0-0-0-0-0-0-0-0-|-0-0-0-0-0-----|
|----1-1-1-1-1-1-|-3--3-3-3-3-3-3-|-----------------|------------3--|


  Q  E E E E E E   Q  E E E E E E   Q  E E E E E E   E E E E Q  Q
|----------------|----------------|----------------|---------------|
|----------------|----------------|----------------|---------------|
|----------------|----------------|----------------|---------------|
|----------------|----------------|----------------|---------------|
|-0--0-0-0-0-0-0-|-2--2-2-2-2-2-2-|-3--3-3-3-3-3-3-|-3-3-3-3-3--5--|
|----------------|----------------|----------------|---------------|
|
| Q  E E E E E E   Q  E E E E E E   Q  E E E E E E   E E E E Q  Q
|----------------|----------------|----------------|---------------|
|----------------|----------------|----------------|---------------|
|----------------|----------------|----------------|---------------|
|----------------|----------------|----------------|---------------|
|----------------|----------------|-0--0-0-0-0-0-0-|-0-0-0-0-0--2--|
|-1--1-1-1-1-1-1-|-3--3-3-3-3-3-3-|----------------|---------------|


  Q  Q  Q  Q    Q  Q  Q  Q    Q.    E  +Q    Q     W
|-------------|-------------|-4----12-(12)--12--|-12----|
|-------------|-------------|------12-(12)--12--|-12----|
|-------------|----2-----2--|-------------------|-------|
|----5-----5--|-4-----4-----|-------------------|-------|
|-7-----7-----|-------------|-------------------|-------|
|-------------|-------------|-------------------|-------|
|
| Q  Q  Q  Q    Q  Q  Q  Q    Q.    E  +Q    Q     W
|-------------|-------------|-------7--(7)---5--|--4----|
|-------------|-------------|-5-----------------|-------|
|-------------|-------------|-------------------|-------|
|----2-----2--|-0--4-----4--|-------------------|-------|
|-3-----3-----|-------5-----|-------------------|-------|
|-------------|-------------|-------------------|-------|


  Q  E E E E E E   Q  E E E E E E   Q  E E E E E E   E E E E Q  Q
|----------------|----------------|----------------|---------------|
|----------------|----------------|----------------|---------------|
|----------------|----------------|----------------|---------------|
|----------------|----------------|----------------|---------------|
|-0--0-0-0-0-0-0-|-2--2-2-2-2-2-2-|-3--3-3-3-3-3-3-|-3-3-3-3-3--2--|
|----------------|----------------|----------------|---------------|
|
| Q  E E E E E E   Q  E E E E E E   Q  E E E E E E   E E E E Q  Q
|----------------|----------------|----------------|---------------|
|----------------|----------------|----------------|---------------|
|----------------|----------------|----------------|---------------|
|----------------|----------------|----------------|---------------|
|----------------|----------------|-0--0-0-0-0-0-0-|-0-0-0-0-0-----|
|-1--1-1-1-1-1-1-|-3--3-3-3-3-3-3-|----------------|------------3--|


  Q  E E E E E E   Q  E E E E Q    E E E E E E  E  E    E  E  E  E E E E E
|----------------|---------------|-7-----------------|-----------------7-7-|
|----------------|---------------|---9-----9-9-10-10-|-12-12-10-10-9-9-----|
|----------------|------------4--|-----9-9-----------|---------------------|
|----------------|---------------|-------------------|---------------------|
|-0--0-0-0-0-0-0-|-2--2-2-2-2----|-------------------|---------------------|
|----------------|---------------|-------------------|---------------------|
|
| Q  E E E E E E   Q  E E E E Q    E E E E E E  E  E    E  E  E  E E E E E
|----------------|---------------|-------------------|---------------------|
|----------------|---------------|-------------------|---------------------|
|----------------|---------------|-------------------|---------------------|
|----------------|------------5--|-------------------|---------------------|
|----------------|---------------|-------------------|---------------------|
|-1--1-1-1-1-1-1-|-3--3-3-3-3----|-0-0-0-0-0-0--0--0-|--0--0--0--0-0-0-0-0-|


  E  E  E  E  E  E  E  E    E  E  E  E  E  E E E
|-8----------------------|-------------------8-8-|
|---10-------10-10-12-12-|-13-13-12-12-10-10-----|
|------10-10-------------|-----------------------|
|------------------------|-----------------------|
|------------------------|-----------------------|
|------------------------|-----------------------|
|
| E  E  E  E  E  E  E  E    E  E  E  E  E  E E E
|------------------------|-----------------------|
|------------------------|-----------------------|
|------------------------|-----------------------|
|------------------------|-----------------------|
|------------------------|-----------------------|
|-1--1--1--1--1--1--1--1-|--1--1--1--1--1--1-1-1-|


   E  E  E  E  E  E  E  E    E  E  E  E  E  E  E  E
|-10----------------------|-------------------10-10-|
|----12-------12-12-13-13-|-15-15-13-13-12-12-------|
|-------12-12-------------|-------------------------|
|-------------------------|-------------------------|
|-------------------------|-------------------------|
|-------------------------|-------------------------|
|
|  E  E  E  E  E  E  E  E    E  E  E  E  E  E  E  E
|-------------------------|-------------------------|
|-------------------------|-------------------------|
|-------------------------|-------------------------|
|-------------------------|-------------------------|
|-------------------------|-------------------------|
|--3--3--3--3--3--3--3--3-|--3--3--3--3--3--3--3--3-|


   E  E  E  E  E  E  E  E    E  E  E  E  E  E  E  E
|-12----------------------|-------------------12-12-|
|----14-------14-14-15-15-|-17-17-15-15-14-14-------|
|-------14-14-------------|-------------------------|
|-------------------------|-------------------------|
|-------------------------|-------------------------|
|-------------------------|-------------------------|
|
|  E  E  E  E  E  E  E  E    E  E  E  E  E  E  E  E
|-------------------------|-------------------------|
|-------------------------|-------------------------|
|-------------------------|-------------------------|
|-------------------------|-------------------------|
|--0--0--0--0--0--0--0--0-|--0--0--0--0--0--0--0--0-|
|-------------------------|-------------------------|


   E  E  E  E  E  E  E  E    E  E  E  E E E E E
|-------------------------|-----------------7-7-|
|-12----------------------|-12-12-10-10-9-9-----|
|----13-------13-13-14-14-|---------------------|
|-------14-14-------------|---------------------|
|-------------------------|---------------------|
|-------------------------|---------------------|
|
|  E  E  E  E  E  E  E  E    E  E  E  E E E E E
|-------------------------|---------------------|
|-------------------------|---------------------|
|-------------------------|---------------------|
|-------------------------|---------------------|
|-------------------------|---------------------|
|--0--0--0--0--0--0--0--0-|--0--0--0--0-0-0-0-0-|


  E  E  E  E  E  E  E  E    E  E  E  E  E  E E E
|-8----------------------|-------------------8-8-|
|---10-------10-10-12-12-|-13-13-12-12-10-10-----|
|------10-10-------------|-----------------------|
|------------------------|-----------------------|
|------------------------|-----------------------|
|------------------------|-----------------------|
|
| E  E  E  E  E  E  E  E    E  E  E  E  E  E E E
|------------------------|-----------------------|
|------------------------|-----------------------|
|------------------------|-----------------------|
|------------------------|-----------------------|
|------------------------|-----------------------|
|-1--1--1--1--1--1--1--1-|--1--1--1--1--1--1-1-1-|


   E  E  E  E  E  E  E  E    E  E  E  E  E  E  E  E
|-10----------------------|-------------------10-10-|
|----12-------12-12-13-13-|-15-15-13-13-12-12-------|
|-------12-12-------------|-------------------------|
|-------------------------|-------------------------|
|-------------------------|-------------------------|
|-------------------------|-------------------------|
|
|  E  E  E  E  E  E  E  E    E  E  E  E  E  E  E  E
|-------------------------|-------------------------|
|-------------------------|-------------------------|
|-------------------------|-------------------------|
|-------------------------|-------------------------|
|-------------------------|-------------------------|
|--3--3--3--3--3--3--3--3-|--3--3--3--3--3--3--3--3-|


   H    Q  Q    Q  Q  E E Q    Q  H    Q      Q.   E +Q   Q
|-10----8--7--|--------------|--------------|----------------|
|-------------|-9------------|----1---------|-1----0-(0)--1--|
|-------------|--------------|---------0----|----------------|
|-------------|-------7-5-3--|--------------|----------------|
|-------------|--------------|--------------|----------------|
|-------------|--------------|--------------|----------------|
|
|  H    Q  Q    Q  Q  H        Q  H    E. S   Q.   E +Q   Q
|--7----5--4--|--------------|--------------|----------------|
|-------------|-5------------|--------------|----------------|
|-------------|--------------|--------------|----------------|
|-------------|--------------|----5-------5-|-7----5-(5)--7--|
|-------------|--------------|---------7----|----------------|
|-------------|--------------|--------------|----------------|


  Q.   E +Q   Q     Q.   E +Q   Q    H.       Q     W
|----------------|-----------------|-------------|-------|
|-3----1-(1)--3--|--5----3-(3)--1--|-3-----------|-------|
|----------------|-----------------|----------4--|-------|
|----------------|-----------------|-------------|--5----|
|----------------|-----------------|-------------|-------|
|----------------|-----------------|-------------|-------|
|
| Q.   E +Q   Q     Q.   E +Q   Q    H.       Q     W
|----------------|-----------------|-------------|-------|
|----------------|-----------------|-------------|-------|
|----------------|-----------------|-------------|-------|
|-9----7-(7)--9--|-10----9-(9)--7--|-9-----------|-------|
|----------------|-----------------|---------10--|-------|
|----------------|-----------------|-------------|-10----|


  H.       Q     W          Q.   E +Q   Q    Q.   E +Q   Q
|-------------|-----------|----------------|----------------|
|-3-----------|-----------|----------------|-3----1-(1)--3--|
|----------4--|-----------|-5----4-(4)--5--|----------------|
|-------------|--5--------|----------------|----------------|
|-------------|-----------|----------------|----------------|
|-------------|-----------|----------------|----------------|
|
| H.       Q     W          Q.   E +Q   Q    Q.   E +Q   Q
|-------------|-----------|----------------|----------------|
|-------------|-----------|-------------5--|-6----5-(5)--6--|
|-------------|-----------|-9----7-(7)-----|----------------|
|-9-----------|-----------|----------------|----------------|
|---------10--|-----------|----------------|----------------|
|-------------|-10--------|----------------|----------------|


  Q.   E +Q   Q     Q.   E +Q    Q     W          Q   E  E  E  E Q
|----------------|------------------|-----------|-------------------|
|-5----3-(3)--5--|--6----5-(5)---6--|--8--------|----10--8-10--8-6--|
|----------------|------------------|-----------|-------------------|
|----------------|------------------|-----------|-------------------|
|----------------|------------------|-----------|-------------------|
|----------------|------------------|-----------|-------------------|
|
| Q.   E +Q   Q     Q.   E +Q    Q     W          Q   E  E  E  E Q
|----------------|------------------|-----------|----12-10-12-10-8--|
|-8----6-(6)--8--|-10----8-(8)--10--|-12--------|-------------------|
|----------------|------------------|-----------|-------------------|
|----------------|------------------|-----------|-------------------|
|----------------|------------------|-----------|-------------------|
|----------------|------------------|-----------|-------------------|


   W           +H.      Q     E E E E E E E E   E E E E E E E E
|-----------|--------------|------------------|-----------------|
|--8--------|--(8)---------|----------4-------|---------4-------|
|-----------|--------------|----5-6-5---5-6-5-|---5-6-5---5-6-5-|
|-----------|--------------|--6---------------|-6---------------|
|-----------|--------------|------------------|-----------------|
|-----------|--------------|------------------|-----------------|
|
|  W           +H.      Q     E E E E E E E E   E E E E E E E E
|-10--------|-(10)---------|----------3-------|---------3-------|
|-----------|--------------|------6-4---4-6-4-|---4-6-4---4-6-4-|
|-----------|--------------|----8-------------|-5---------------|
|-----------|--------------|-10---------------|-----------------|
|-----------|--------------|------------------|-----------------|
|-----------|--------------|------------------|-----------------|


  E E E E E E E E   E E E E E E E E   E E E E E E E E   E E E E E E E E
|---------1-------|---------1-------|---------1-------|---------1-------|
|---3-4-3---3-4-3-|---3-4-3---3-4-3-|---3-4-3---3-4-3-|---3-4-3---3-4-3-|
|-3---------------|-3---------------|-4---------------|-4---------------|
|-----------------|-----------------|-----------------|-----------------|
|-----------------|-----------------|-----------------|-----------------|
|-----------------|-----------------|-----------------|-----------------|
|
| E E E E E E E E   E E E E E E E E   E E E E E E E E   E E E E E E E E
|---1-3-1-4-------|---------4-------|---------4-------|---------4-------|
|-3---------6-8-6-|---6-8-6---6-8-6-|---6-8-6---6-8-6-|---6-8-6---6-8-6-|
|-----------------|-7---------------|-7---------------|-7---------------|
|-----------------|-----------------|-----------------|-----------------|
|-----------------|-----------------|-----------------|-----------------|
|-----------------|-----------------|-----------------|-----------------|


  E E E E E E E E   E E E E E E E E    E E E E E E E E   E E E E E E E E
|---------3-------|---------3-------|------------------|-----------------|
|-1-4-6-4---4-6-4-|---4-6-4---4-6-4-|----------4-------|---------4-------|
|-----------------|-3---------------|----5-6-5---5-6-5-|---5-6-5---5-6-5-|
|-----------------|-----------------|--6---------------|-6---------------|
|-----------------|-----------------|------------------|-----------------|
|-----------------|-----------------|------------------|-----------------|
|
| E E E E E E E E   E E E E E E E E    E E E E E E E E   E E E E E E E E
|---3-4-3-6-------|---------6-------|----------3-------|---------3-------|
|-4---------8-9-8-|---8-9-8---8-9-8-|------6-4---4-6-4-|---4-6-4---4-6-4-|
|-----------------|-8---------------|----8-------------|-5---------------|
|-----------------|-----------------|-10---------------|-----------------|
|-----------------|-----------------|------------------|-----------------|
|-----------------|-----------------|------------------|-----------------|


  E E E E E E E E   E E E E E E E E
|---------1-------|---------1-------|
|---3-1-3---3-4-3-|---3-1-3---3-4-3-|
|-3---------------|-3---------------|
|-----------------|-----------------|
|-----------------|-----------------|
|-----------------|-----------------|
|
| E E E E E E E E   E E E E E E E E
|---1-3-1-4-------|---------4-------|
|-3---------6-8-6-|---6-8-6---6-8-6-|
|-----------------|-7---------------|
|-----------------|-----------------|
|-----------------|-----------------|
|-----------------|-----------------|


  E  E  E  E  E  E  E  E    E  E  +Q      +H
|---15----15----15----15-|----15-(15)----(15)-----------|
|------------------------|------------------------------|
|-4----------------------|------------------------------|
|------------------------|------------------------------|
|------14----14----14----|-14---------------------------|
|------------------------|------------------------------|
|
| W                         Q     +S  E.  +E  S S +Q
|------------------------|------------------------------|
|------------------------|------------------------------|
|------------------------|--4-----(4)-----------4-(4)---|
|------------------------|------------5---(5)-----------|
|------------------------|------------------------------|
|------------------------|------------------------------|


  W          +W           +W           +W
|----------|------------|------------|--------|
|-3--------|-(3)--------|-(3)--------|-(3)----|
|-2--------|-(2)--------|-(2)--------|-(2)----|
|-0--------|-(0)--------|-(0)--------|-(0)----|
|----------|------------|------------|--------|
|----------|------------|------------|--------|
|
| W          +W           +W           +W
|----------|------------|------------|--------|
|----------|------------|------------|--------|
|-7--------|-(7)--------|-(7)--------|-(7)----|
|-7--------|-(7)--------|-(7)--------|-(7)----|
|-5--------|-(5)--------|-(5)--------|-(5)----|
|----------|------------|------------|--------|


  E E E E E E E E   E  E  E  E E E E E   W          +H     Q  Q
|-----------------|--------------------|----------|--------------|
|-------2-2-2-3-3-|-3--5--5--5-3-3-2-2-|----------|-----------2--|
|-4-4-4-----------|--------------------|-4--------|-(4)----4-----|
|-----------------|--------------------|----------|--------------|
|-----------------|--------------------|----------|--------------|
|-----------------|--------------------|----------|--------------|
|
| E E E E E E E E   E  E  E  E E E E E   W          +H     Q  Q
|-----------------|--------------------|----------|--------------|
|-----------------|--------------------|----------|-----------2--|
|-----------------|--------------------|----------|--------4-----|
|-5-5-5-7-7-7-9-9-|-9-10-10-10-9-9-7-7-|-5--------|-(5)----------|
|-----------------|--------------------|----------|--------------|
|-----------------|--------------------|----------|--------------|


  W                 H       Q   Q     E E H       S S E   Q.     E Q   Q
|-----------------|-----------------|-------------------|--------------3---|
|-3---------------|-5-------3---2---|-3-2---------------|--------4---------|
|-----------------|-----------------|-----4-------------|-4----------------|
|-----------------|-----------------|-------------5-----|------------------|
|-----------------|-----------------|-------------------|------------------|
|-----------------|-----------------|-------------------|------------------|
|
| E E E E E E E E   E E E E E E E E   E E E E E E E   E   E  E E E E E Q
|-----------------|-----------------|-------------------|------------------|
|-----------------|-----------------|-------------------|------------------|
|-----------------|-----------------|-------------------|------------------|
|-----------------|-----------------|-------------------|--------------0---|
|-2-2-2-2-2-2-2-2-|-2-2-2-2-2-2-2-2-|-0-2-2-2-2-2-2---2-|-2--2-2-2-2-2-----|
|-----------------|-----------------|-------------------|------------------|


  H     H       Q.    E +Q    Q
|-3-----------|---------------3---|
|-------5-----|-------5-(5)-------|
|-------------|-5-----------------|
|-------------|-------------------|
|-------------|-------------------|
|-------------|-------------------|
|
| Q  Q  Q  Q    Q   Q    E  E E E
|-------------|-------------------|
|-------------|-------------------|
|-5-----5-----|-5-----------------|
|-5-----5-----|-5-----------------|
|-3-----3-----|-3--------3--3-3-3-|
|-------------|-------------------|


  Q  Q   E E E E    E  E  E  E  Q   S  S S  S
|----2-----------|----------------------------|
|-3------3-5-7-8-|-10-12-13-15-17--17-19---17-|
|----------------|----------------------------|
|----------------|----------------------------|
|----------------|----------------------------|
|----------------|----------------------------|
|
| Q  E E Q   E E    Q     E  E  Q   E    E
|----------------|----------------------------|
|-3------3-------|--3-----------3-------------|
|-2------2-------|--2-----------2-------------|
|-0--0-0-0---0-0-|--0-----0--0--0---0----0----|
|----------------|----------------------------|
|----------------|----------------------------|


   H.            Q      Q.      E  +Q     E  E
|--------------------|-------------------------|
|-16-----------------|-16------17-(17)---19-17-|
|---------------16---|-------------------------|
|--------------------|-------------------------|
|--------------------|-------------------------|
|--------------------|-------------------------|
|
|  E  E E E E E  E E    E  E E  E   E  E  E  E
|--------------------|-------------------------|
|--------------------|-------------------------|
|--------------------|-------------------------|
|--------------------|-------------------------|
|--2--2-2-2-2-2--2-2-|--2--2-2--2---2--2--2--2-|
|--------------------|-------------------------|


   H        E  E  E  E    E  E  E  E  E  E  E  E
|----------------------|-------------------------|
|----------------16-17-|-16----------16-17-16-17-|
|-16-------16-17-------|----16-16-17-------------|
|----------------------|-------------------------|
|----------------------|-------------------------|
|----------------------|-------------------------|
|
|  E E E E  E  E  E  E    E  E  E  E  E  E  Q
|----------------------|-------------------------|
|----------------------|-------------------------|
|----------------------|-------------------------|
|----------------------|--------------------0----|
|--0-2-2-2--2--2--2--2-|--2--2--2--2--2--2-------|
|----------------------|-------------------------|


   E  E  E  E  E  E  E  E    E  E  E  E  E  E  E  E
|----15----------------15-|----------------15-------|
|-17----17----------17----|-17----------17----17-19-|
|----------17-16-17-------|----17-16-17-------------|
|-------------------------|-------------------------|
|-------------------------|-------------------------|
|-------------------------|-------------------------|
|
|  Q     Q     Q     Q       Q     Q     Q     Q
|-------------------------|-------------------------|
|-------------------------|-------------------------|
|--5-----------5----------|--5-----------5-----5----|
|--5-----------5----------|--5-----------5-----5----|
|--3-----------3----------|--3-----------3-----3----|
|-------------------------|-------------------------|


   E  E  E  E  E  E  E  E    E  E  E  E  E  E  E  E
|----17-------------------|-------------------------|
|-19----19-------17-19-20-|-22-------------17----22-|
|----------19-19----------|----23-19-19-19----23----|
|-------------------------|-------------------------|
|-------------------------|-------------------------|
|-------------------------|-------20----22----24----|
|
|  Q     E  E  Q     E  E    Q     E  E  Q     E  E
|-------------------------|-------------------------|
|--3-----------3----------|--3-----------0-----1----|
|--2-----------2----------|--2-----2-----2----------|
|--0-----0--0--0-----0--0-|--0-----0--0--0-----0--0-|
|-------------------------|-------------------------|
|-------------------------|-------------------------|


   E  E  E  E  E  E  E  E    Q   Q   Q   Q     Q   H     Q     Q   Q   Q   Q
|-20----------------------|-----------------|---------------|-----------------|
|-------------------------|-24--------------|-22------------|-----------------|
|-------------------------|-----------------|---------------|-----------------|
|-------------------------|-----------------|---------------|-----------------|
|-20-20-20-20-20-20-------|-----------------|-----19----17--|-15--14--12--11--|
|-------------------22-22-|-24--22--20--19--|-20------------|-----------------|
|
|  E  E  E  E  E  E  E  E    Q   Q   Q   Q     Q   H     Q     Q   Q   Q   Q
|-------------------------|-----------------|---------------|-----------------|
|--3--3--3--3--3--3-------|-----------------|------1-----0--|-----------------|
|--------------------4--4-|--5---4---2---0--|--2------------|--2---0----------|
|-------------------------|-----------------|---------------|----------3---2--|
|-------------------------|-----------------|---------------|-----------------|
|-------------------------|-----------------|---------------|-----------------|


   E  E  E  E  E  E  E  E    Q   Q   Q  Q     Q  H    Q    Q  Q  Q  Q
|-------------------------|----------------|-------------|-------------|
|-------------------------|----------------|-------------|-------3--5--|
|-------------------------|----------------|-------------|----5--------|
|-------------------------|----------------|-----9----7--|-6-----------|
|-12-12-12-12-12-12-11-12-|-14--12--11--9--|-11----------|-------------|
|-------------------------|----------------|-------------|-------------|
|
|  E  E  E  E  E  E  E  E    Q   Q   Q  Q     Q  H    Q    Q  Q  Q  Q
|-------------------------|----------------|-------------|-------------|
|-------------------------|----------------|-------------|-------------|
|-------------------------|----------------|-----0-------|----2--4--5--|
|--3--3--3--3--3--3--2--3-|--5---3---2--0--|--2-------3--|-2-----------|
|-------------------------|----------------|-------------|-------------|
|-------------------------|----------------|-------------|-------------|


  E E E E E E E E   Q  Q  Q  Q    Q  H    Q    Q  Q  Q  Q
|-----------------|-------------|----0-------|-------------|
|-6-6-6-6-6-6-5-6-|-8--6--5--3--|-1-------3--|-1--0--------|
|-----------------|-------------|------------|-------2--0--|
|-----------------|-------------|------------|-------------|
|-----------------|-------------|------------|-------------|
|-----------------|-------------|------------|-------------|
|
| E E E E E E E E   Q  Q  Q  Q    Q  H    Q    Q  Q  Q  Q
|-----------------|-------------|------------|-------------|
|-3-3-3-3-3-3-1-3-|-5--3--1--0--|----1----0--|-------------|
|-----------------|-------------|-2----------|-2--0--------|
|-----------------|-------------|------------|-------3--2--|
|-----------------|-------------|------------|-------------|
|-----------------|-------------|------------|-------------|


  E E E E E E E E   E E E E Q   Q     Q.   E +Q   Q    W
|-----------------|-----------------|-0--------------|------|
|-----------------|---------3---1---|------3-(3)-----|------|
|-2-2-2-2-4-4-2-4-|-5-5-4-4---------|-------------4--|-5----|
|-----------------|-----------------|----------------|------|
|-----------------|-----------------|----------------|------|
|-----------------|-----------------|----------------|------|
|
| E E E E E E E E   E E E E E E E E   Q.   E +Q   Q    W
|-----------------|-----------------|----------------|------|
|-----------------|-----------------|-1----0-(0)-----|------|
|-----------------|---------4-4-2-2-|-------------0--|-2----|
|-3-3-2-3-5-5-3-5-|-7-7-5-5---------|----------------|------|
|-----------------|-----------------|----------------|------|
|-----------------|-----------------|----------------|------|


  E E E E E E E E   E E H    Q    E E E E E E E E   E E H     Q
|-----------------|-------------|-----------------|--------------|
|-----------------|-------------|-----------------|--------------|
|-----------------|-------------|-----------------|--------------|
|-----------------|-------------|-----------------|--------------|
|-----------------|-------------|-----------------|--------------|
|-5-5-5-5-5-5-5-5-|-5-5-7----8--|-7-7-7-7-7-7-7-7-|-7-7-8----10--|
|
| E E E E E E E E   E E H    Q    E E E E E E E E   E E H     Q
|-----------------|-------------|-----------------|--------------|
|-----------------|-------------|-----------------|--------------|
|-----------------|-------------|-----------------|--------------|
|-----------------|-------------|-----------------|--------------|
|-0-0-0-0-0-0-0-0-|-0-0------0--|-----------------|-----2-----3--|
|-----------------|-----3-------|-3-3-3-3-3-3-3-3-|-3-3----------|


  Q  E E E E E E   E E H    Q    Q  E E E E E E   E E H    Q
|----------------|-------------|----------------|-------------|
|----------------|-------------|----------------|-------------|
|----------------|-------------|----------------|-------------|
|----------------|-------------|----------------|-------------|
|----------------|-----7----8--|-7--7-7-7-7-7-7-|-7-7---------|
|-8--8-8-8-8-8-8-|-8-8---------|----------------|-----7----8--|
|
| Q  E E E E E E   E E H    Q    Q  E E E E E E   E E H    Q
|----------------|-------------|----------------|-------------|
|----------------|-------------|----------------|-------------|
|----------------|-------------|----------------|-------------|
|----------------|-------------|----------------|-------------|
|----------------|----------0--|----------------|-----5----7--|
|-1--1-1-1-1-1-1-|-1-1-3-------|-0--0-0-0-0-0-0-|-0-0---------|


  Q  E E E E E E   E E H    Q    Q  E E E E E E   E E H     Q
|----------------|-------------|----------------|--------------|
|----------------|-------------|----------------|--------------|
|----------------|-------------|----------------|--------------|
|----------------|-------------|----------------|--------------|
|----------------|-------------|----------------|--------------|
|-5--5-5-5-5-5-5-|-5-5-7----8--|-7--7-7-7-7-7-7-|-7-7-8----10--|
|
| Q  E E E E E E   E E H    Q    Q  E E E E E E   E E H     Q
|----------------|-------------|----------------|--------------|
|----------------|-------------|----------------|--------------|
|----------------|-------------|----------------|--------------|
|----------------|-------------|----------------|-----2-----3--|
|----------------|----------0--|----------------|--------------|
|-5--5-5-5-5-5-5-|-5-5-3-------|-3--3-3-3-3-3-3-|-3-3----------|


  Q.   E +Q   Q    Q.   E +Q   Q    S S E E E E E E E   E E E E E E E E
|----------------|----------------|-------------------|------------------|
|----------------|----------------|-------------------|------------------|
|----------------|----------------|-------------------|------------------|
|----------------|----------------|-5-----------------|------------------|
|-0-----------0--|-2----0-(0)-----|-------------------|------------------|
|------3-(3)--1--|-------------3--|-5---5-5-5-5-5-5-5-|-5-5-5-5-5-5-5-5--|
|
| Q.   E +Q   Q    Q.   E +Q   Q    E   E E E E E E E   E E E E E E E E
|----------------|----------------|-------------------|------------------|
|----------------|----------------|-------------------|------------------|
|----------------|----------------|-------------------|------------------|
|----------------|----------------|-------------------|------------------|
|-0-----------0--|----------------|-0---0-0-0-0-0-0-0-|-0-0-0-0-0-0-0-0--|
|------3-(3)--1--|-3----1-(1)--0--|-------------------|------------------|


  E E E E E E E E   E E H    Q    E E E E E E E E   E E H     Q
|-----------------|-------------|-----------------|--------------|
|-----------------|-------------|-----------------|--------------|
|-----------------|-------------|-----------------|--------------|
|-----------------|-------------|-----------------|--------------|
|-----------------|-------------|-----------------|--------------|
|-5-5-5-5-5-5-5-5-|-5-5-7----8--|-7-7-7-7-7-7-7-7-|-7-7-8----10--|
|
| E E E E E E E E   E E H    Q    E E E E E E E E   E E H     Q
|-----------------|-------------|-----------------|--------------|
|-----------------|-------------|-----------------|--------------|
|-----------------|-------------|-----------------|--------------|
|-----------------|-------------|-----------------|--------------|
|-0-0-0-0-0-0-0-0-|-0-0------0--|-----------------|-----2-----3--|
|-----------------|-----3-------|-3-3-3-3-3-3-3-3-|-3-3----------|


  Q  E E E E E E   E E H    Q    Q  E E E E E E   E E H    Q
|----------------|-------------|----------------|-------------|
|----------------|-------------|----------------|-------------|
|----------------|-------------|----------------|-------------|
|----------------|-------------|----------------|-------------|
|----------------|-----7----8--|-7--7-7-7-7-7-7-|-7-7---------|
|-8--8-8-8-8-8-8-|-8-8---------|----------------|-----7----8--|
|
| Q  E E E E E E   E E H    Q    Q  E E E E E E   E E H    Q
|----------------|-------------|----------------|-------------|
|----------------|-------------|----------------|-------------|
|----------------|-------------|----------------|-------------|
|----------------|-------------|----------------|-------------|
|----------------|----------0--|----------------|-----5----7--|
|-1--1-1-1-1-1-1-|-1-1-3-------|-0--0-0-0-0-0-0-|-0-0---------|


  Q  E E E E E E   E E H    Q    Q  E E E E E E   E E H     Q
|----------------|-------------|----------------|--------------|
|----------------|-------------|----------------|--------------|
|----------------|-------------|----------------|--------------|
|----------------|-------------|----------------|--------------|
|----------------|-------------|----------------|--------------|
|-5--5-5-5-5-5-5-|-5-5-7----8--|-7--7-7-7-7-7-7-|-7-7-8----10--|
|
| Q  E E E E E E   E E H    Q    Q  E E E E E E   E E H     Q
|----------------|-------------|----------------|--------------|
|----------------|-------------|----------------|--------------|
|----------------|-------------|----------------|--------------|
|----------------|-------------|----------------|-----2-----3--|
|----------------|----------0--|----------------|--------------|
|-5--5-5-5-5-5-5-|-5-5-3-------|-3--3-3-3-3-3-3-|-3-3----------|


  Q.   E +Q   Q    Q.   E +Q   Q    W                Q   E E +Q   Q
|----------------|----------------|----------------|-----------------|
|----------------|----------------|----------------|-----------------|
|----------------|-------------4--|-5--------------|-5-----5-(5)--4--|
|----------------|----------------|----------------|-----------------|
|-0-----------0--|-2--------------|----------------|-----------------|
|------3-(3)--1--|------3-(3)-----|----------------|-----------------|
|
| Q.   E +Q   Q    Q.   E +Q   Q    Q  E E E E E E   E E E E  Q   Q
|----------------|----------------|----------------|-----------------|
|----------------|----------------|----------------|-----------------|
|----------------|----------------|-2--------------|-----------------|
|----------------|----------------|-2--------------|-----------------|
|-0-----------0--|----------------|-0--0-0-0-0-0-0-|-0-0-0-0--0------|
|------3-(3)--1--|-3----1-(1)--0--|----------------|--------------3--|


  W                Q.   E +E. S Q    W                 Q.     E +Q   Q
|----------------|-----------------|-----------------|-0----------------|
|----------------|--------------3--|-1---------------|--------3-(3)--1--|
|-2--------------|-4----5-(5)-5----|-----------------|------------------|
|----------------|-----------------|-----------------|------------------|
|----------------|-----------------|-----------------|------------------|
|----------------|-----------------|-----------------|------------------|
|
| Q  E E E E E E   Q.   E +Q    Q    E E E E E E E E   E  E E E +Q   Q
|----------------|-----------------|-----------------|------------------|
|----------------|-----------------|-----------------|------------------|
|----------------|-----------------|-----------------|--------2-(2)--2--|
|----------------|-5----5-(5)---5--|-----------------|--------2-(2)--2--|
|----------------|-5----5-(5)---5--|-0-0-0-0-0-0-0-0-|-0--0-0-0-(0)--0--|
|-1--1-1-1-1-1-1-|-3----3-(3)---3--|-----------------|------------------|


  Q.   E +Q   Q    Q.   E +Q   Q    H    H      W
|----------------|----------------|-----------|------|
|----------------|-------------3--|-1---------|------|
|-2----1-(1)--2--|-4----5-(5)-----|-----------|------|
|----------------|----------------|-----------|------|
|----------------|----------------|-----------|------|
|----------------|----------------|-----------|------|
|
| Q.   E +Q   Q    Q.   E +Q   Q    H    H      W
|----------------|----------------|-----------|------|
|----------------|----------------|-----------|------|
|----------------|----------------|-2---------|------|
|------3-(3)--3--|-5----5-(5)--5--|-2---------|------|
|------3-(3)--3--|-5----5-(5)--5--|-0---------|------|
|-1----1-(1)--1--|-3----3-(3)--3--|-----------|------|


  W          W          W          W
|----------|----------|----------|------|
|----------|-----





Comments


Popular X Japan tabs & chords
Alive Bass Tabs
Art Of Life Bass Tabs
20th Century Boy Tabs
Drain Tabs
Endless Rain 3 Tabs
Jade Tabs
Silent Jealousy Tabs
Tears 2 Tabs
Unfinished Tabs
Without You Intro Tabs


Song lyrics



↑ Back to top | Tablatures and chords are parodies/interpretations of the original songs. You may use it for private study, scholarship, research or language learning purposes only
© 2014 AZChords.com Contact us | Privacy policy | DMCA | Add/correct tabs | Request tabs | Top 50 tabs