>
 >
Forever Love 1

Forever Love 1 Guitar Tabs

X Japan - Forever Love 1 chords, tabs, tablatures, lyrics

Guitar lessons | Add/correct | Request | Top 50 tabs Artists:  A B C D E F G H I J K L M N O P Q R S T U V W X Y Z 0-9

Forever Love 1 Guitar Tabs – X Japan

CD, Sheet music, Poster

Do you like Forever Love 1? Share with your friends now
Bass TabsTabsTabs v2

FOREVER LOVE
As recorded by X Japan


        



Gtr I (Eb Ab Db Gb Bb Eb) - 'Vocals'
Gtr II (Eb Ab Db Gb Bb Eb) - 'Distortion'
Gtr III (Eb Ab Db Gb Bb Eb) - 'Clean'

  Q=93
 6/8
  Gtr III
  H.        +H.        +H.        +H.        H.        +Q.   E E E
|---------|----------|----------|----------|---------|---------------|
|-2-------|-(2)------|-(2)------|-(2)------|-4-------|-(4)---4-5-4---|
|-3-------|-(3)------|-(3)------|-(3)------|---------|---------------|
|-4-------|-(4)------|-(4)------|-(4)------|---------|---------------|
|-6-------|-(6)------|-(6)------|-(6)------|---------|---------------|
|---------|----------|----------|----------|---------|---------------|


  H.        +Q.   Q.     E Q  +Q.     +H     E E   H.         H.
|-2-------|-(2)--------|------------|------------|---------|--------|
|---------|-------2----|-2----------|------------|---------|--------|
|---------|------------|---4--(4)---|-(4)--------|---------|--------|
|---------|------------|------------|--------6-8-|-9-------|-11-----|
|---------|------------|------------|------------|---------|--------|
|---------|------------|------------|------------|---------|--------|


   H.         +Q.    E  E  E    H.
|----------|-----------------|----------|
|----------|-----------------|----------|
|----------|-----------------|-11-------|
|-13-------|-(13)---13-14-13-|----------|
|----------|-----------------|----------|
|----------|-----------------|----------|


   +Q.    E E  E    Q   E  +Q.      +Q.    Q.
|----------------|---------------|--------------|
|-----------9-11-|-11--12-(12)---|-(12)---11----|
|-(11)---11------|---------------|--------------|
|----------------|---------------|--------------|
|----------------|---------------|--------------|
|----------------|---------------|--------------|


   Q   E  +Q.      +Q.    Q.     E Q  +Q.     +H.        +H.        +H.
|---------------|--------------|-9-7--(7)---|-(7)------|-(7)------|-(7)----|
|-11--12-(12)---|-(12)---11----|------------|----------|----------|--------|
|---------------|--------------|------------|----------|----------|--------|
|---------------|--------------|------------|----------|----------|--------|
|---------------|--------------|------------|----------|----------|--------|
|---------------|--------------|------------|----------|----------|--------|


  Gtr I
  Q.   E E E   H    E E   E E E +Q.     Q.   Q  E   Q.   E E E   H    E E
|------------|----------|-------------|-----------|------------|----------|
|-4----4-5-7-|----------|-2-----------|-----------|-5----5-7-9-|----------|
|------------|-6----4-3-|---4-4-(4)---|---------4-|------------|-8----6-4-|
|------------|----------|-------------|-----------|------------|----------|
|------------|----------|-------------|-----------|------------|----------|
|------------|----------|-------------|-----------|------------|----------|


  E E E +Q.     W          Q.   E E E   H    E E   E E E +Q.     Q  E E E E
|-------------|----------|------------|----------|-------------|------7-6----|
|-4-2-2-(2)---|----------|-4----4-5-7-|----------|-2-----------|----------7--|
|-------------|----------|------------|-6----4-3-|---4-4-(4)---|----4--------|
|-------------|----------|------------|----------|-------------|-------------|
|-------------|----------|------------|----------|-------------|-------------|
|-------------|----------|------------|----------|-------------|-------------|


  H.        Q.   E E E   E E E +Q.     W          Q.   E E E   H    E E
|---------|------7-6-4-|-4-2-2-(2)---|----------|------------|-----------|
|-9-------|------------|-------------|----------|-4----4-5-7-|-----------|
|---------|------------|-------------|----------|------------|-6----4-3--|
|---------|------------|-------------|----------|------------|-----------|
|---------|------------|-------------|----------|------------|-----------|
|---------|------------|-------------|----------|------------|-----------|


  E E E +Q.     Q.   Q  E   Q.   E E E   H    E E   E E E +Q.     Q.   Q  E
|-------------|-----------|------------|----------|-------------|-----------|
|-2-----------|-----------|-5----5-7-9-|----------|-4-2-2-(2)---|-----------|
|---4-4-(4)---|---------4-|------------|-8----6-4-|-------------|-----------|
|-------------|-----------|------------|----------|-------------|---------4-|
|-------------|-----------|------------|----------|-------------|-----------|
|-------------|-----------|------------|----------|-------------|-----------|


  Q  E E E E   H    E E   E E E +Q.     Q  E E E E   H.        Q  E E E E
|------------|----------|-------------|------7-6---|---------|------7-6-7-|
|-4--4-4-5-7-|----------|-2-----------|----------7-|-9-------|------------|
|------------|-6----4-3-|---4-4-(4)---|----4-------|---------|------------|
|------------|----------|-------------|------------|---------|----9-------|
|------------|----------|-------------|------------|---------|------------|
|------------|----------|-------------|------------|---------|------------|


  H.        H.        H.        Q.   E  E E    Q    E  +Q.      +Q.   E  E  E
|-7-------|-9-------|-7-------|-------------|----------------|----------------|
|---------|---------|---------|-------------|----------------|----------------|
|---------|---------|---------|-------------|----------------|----------------|
|---------|---------|---------|------9-11-9-|-11---13-(13)---|-(13)-----14-14-|
|---------|---------|---------|-------------|----------------|----------------|
|---------|---------|---------|-------------|----------------|----------------|
|
| Gtr III
| W         W         H.        W              H.                W
|---------|---------|-7-------|-------------|--7-------------|----------------|
|---------|---------|-9-------|-------------|--7-------------|----------------|
|---------|---------|-8-------|-------------|--8-------------|----------------|
|---------|---------|-9-------|-------------|--9-------------|----------------|
|---------|---------|-7-------|-------------|----------------|----------------|
|---------|---------|---------|-------------|----------------|----------------|


   H.        Q.    E  E  E    Q    E  +Q.
|----------|---------------|----------------|
|----------|---------------|----------------|
|----------|---------------|----------------|
|-16-------|------16-18-20-|-20---21-(21)---|
|----------|---------------|----------------|
|----------|---------------|----------------|
|
|  H.        W                H.
|----------|---------------|----------------|
|-11-------|---------------|--9-------------|
|-11-------|---------------|--8-------------|
|-11-------|---------------|--9-------------|
|--9-------|---------------|-11-------------|
|----------|---------------|----------------|


   +Q.   Q   E    H.        Q.    E  E  E
|--------------|----------|---------------|
|--------------|----------|---------------|
|--------------|----------|---------------|
|-(21)---------|-21-------|---------------|
|-----------23-|----------|---------------|
|--------------|----------|------19-21-19-|
|
|   W             H.        W
|--------------|----------|---------------|
|--------------|--9-------|---------------|
|--------------|--9-------|---------------|
|--------------|--9-------|---------------|
|--------------|--7-------|---------------|
|--------------|----------|---------------|


   Q    E  +Q.      +Q.   E  E  E    H.
|----------------|----------------|----------|
|----------------|----------------|----------|
|----------------|----------------|----------|
|----------------|----------------|----------|
|----------------|----------------|-21-------|
|-21---23-(23)---|-(23)-----23-23-|----------|
|
|  H.                W               H.
|--7-------------|----------------|----------|
|--7-------------|----------------|-11-------|
|--8-------------|----------------|-11-------|
|--9-------------|----------------|-11-------|
|----------------|----------------|--9-------|
|----------------|----------------|----------|


   +H.        W            Q.    Q.
|-----------|-----------|--------------|
|-----------|-----------|--------------|
|-----------|-----------|--------------|
|-----------|-----------|--------------|
|-(21)------|-----------|-------21-----|
|-----------|-----------|--------------|
|
|             Gtr II
|   W         H.          +H.
|-----------|-2---------|-(2)----------|
|-----------|-2---------|-(2)----------|
|-----------|-3---------|-(3)----------|
|-----------|-4---------|-(4)----------|
|-----------|-4---------|-(4)----------|
|-----------|-2---------|-(2)----------|


   E   E  E  +Q.      +Q.    Q.      E   E  E  +Q.
|------------------|--------------|------------------|
|------------------|--------------|------------------|
|------------------|--------------|------------------|
|-23--21-21-(21)---|-(21)---------|-23--21-21-(21)---|
|------------------|--------21----|------------------|
|------------------|--------------|------------------|
|
|  H.                 +H.            H.
|------------------|--------------|--4---------------|
|--4---------------|--(4)---------|--4---------------|
|--4---------------|--(4)---------|--4---------------|
|--4---------------|--(4)---------|--6---------------|
|--2---------------|--(2)---------|--6---------------|
|------------------|--------------|--4---------------|
|
| Gtr III
|  H.                 +H.            H.
|------------------|--------------|--4---------------|
|------------------|--------------|--4---------------|
|--8---------------|--(8)---------|--4---------------|
|--9---------------|--(9)---------|--6---------------|
|--9---------------|--(9)---------|--6---------------|
|--7---------------|--(7)---------|--4---------------|


   +Q.    E  E  E    H.         Q.   E  E  E
|-----------------|----------|---------------|
|-----------------|----------|---------------|
|--------------20-|----------|---------------|
|-(21)---21-23----|-20-------|---------18-16-|
|-----------------|----------|---------------|
|-----------------|----------|---------------|
|
|  +H.               H.        +H.
|--(4)------------|--6-------|-(6)-----------|
|--(4)------------|--7-------|-(7)-----------|
|--(4)------------|--6-------|-(6)-----------|
|--(6)------------|--8-------|-(8)-----------|
|--(6)------------|--6-------|-(6)-----------|
|--(4)------------|----------|---------------|
|
|  +H.               H.        +H.
|--(4)------------|--6-------|-(6)-----------|
|--(4)------------|--7-------|-(7)-----------|
|--(4)------------|--6-------|-(6)-----------|
|--(6)------------|--8-------|-(8)-----------|
|--(6)------------|--6-------|-(6)-----------|
|--(4)------------|----------|---------------|


   Q.    Q.      Q.    Q   E    E   E  E  +Q.
|-------------|--------------|------------------|
|-------------|--------------|-14--12-12-(12)---|
|-------16----|-15-----------|------------------|
|-18----------|-------16--16-|------------------|
|-------------|--------------|------------------|
|-------------|--------------|------------------|
|
| Gtrs II, III
|  H.            H.             H.
|-------------|--2-----------|------------------|
|--9----------|--2-----------|--4---------------|
|--9----------|--3-----------|--4---------------|
|--9----------|--4-----------|--4---------------|
|--7----------|--4-----------|--2---------------|
|-------------|--2-----------|------------------|


   +Q.   Q   E   E  E E +Q.     +Q.   E E  E
|--------------|-9--7-7-(7)---|-(7)---7-9-11-|
|-(12)---------|--------------|--------------|
|-----------11-|--------------|--------------|
|--------------|--------------|--------------|
|--------------|--------------|--------------|
|--------------|--------------|--------------|
|
|  +H.           H.             +H.
|--------------|-4------------|-(4)----------|
|--(4)---------|-4------------|-(4)----------|
|--(4)---------|-4------------|-(4)----------|
|--(4)---------|-6------------|-(6)----------|
|--(2)---------|-6------------|-(6)----------|
|--------------|-4------------|-(4)----------|


   H.         +Q.   E E E   Q.   Q.      Q.   Q.     E E E +Q.     +H.
|----------|--------------|------7----|--6---------|-9-7-7-(7)---|-(7)----|
|-11-------|-(11)-----9-7-|-9---------|-------7----|-------------|--------|
|----------|--------------|-----------|------------|-------------|--------|
|----------|--------------|-----------|------------|-------------|--------|
|----------|--------------|-----------|------------|-------------|--------|
|----------|--------------|-----------|------------|-------------|--------|
|
|  H.         +H.           H.           H.          W              W
|--6-------|--(6)---------|-----------|------------|-------------|--------|
|--7-------|--(7)---------|-9---------|-11---------|-------------|--------|
|--6-------|--(6)---------|-9---------|-11---------|-------------|--------|
|--8-------|--(8)---------|-9---------|-11---------|-------------|--------|
|--6-------|--(6)---------|-7---------|--9---------|-------------|--------|
|----------|--------------|-----------|------------|-------------|--------|


  W        W          W        Q.   E  E  E    H    E  E   H.
|--------|----------|--------|--------------|-11----9-11-|-9-----|
|--------|----------|--------|------9-11-12-|------------|-------|
|--------|----------|--------|--------------|------------|-------|
|--------|----------|--------|--------------|------------|-------|
|--------|----------|--------|--------------|------------|-------|
|--------|----------|--------|--------------|------------|-------|


  H.        Q.   E  E E    Q    E  +Q.
|-7-------|-------------|----------------|
|---------|-------------|----------------|
|---------|-------------|----------------|
|---------|------9-11-9-|-11---13-(13)---|
|---------|-------------|----------------|
|---------|-------------|----------------|
|
| Gtr III
| H.        W              H.
|-7-------|-------------|--7-------------|
|-9-------|-------------|--7-------------|
|-8-------|-------------|--8-------------|
|-9-------|-------------|--9-------------|
|-7-------|-------------|----------------|
|---------|-------------|----------------|


   +Q.   E  E  E    H.        Q.    E  E  E
|----------------|----------|---------------|
|----------------|----------|---------------|
|----------------|----------|---------------|
|-(13)-----14-14-|-16-------|------16-18-20-|
|----------------|----------|---------------|
|----------------|----------|---------------|
|
|   W               H.        W
|----------------|----------|---------------|
|----------------|-11-------|---------------|
|----------------|-11-------|---------------|
|----------------|-11-------|---------------|
|----------------|--9-------|---------------|
|----------------|----------|---------------|


   H      +E   E    Q.   Q   E    H.
|----------------|-------------|----------|
|----------------|-------------|----------|
|----------------|-------------|----------|
|-20-----(20)-21-|-21----------|-21-------|
|----------------|----------23-|----------|
|----------------|-------------|----------|
|
|  H.               W             H.
|----------------|-------------|----------|
|--9-------------|-------------|--9-------|
|--8-------------|-------------|--9-------|
|--9-------------|-------------|--9-------|
|-11-------------|-------------|--7-------|
|----------------|-------------|----------|


  Q.    E  E  E    Q    E  +Q.      +Q.   E  E  E
|---------------|----------------|----------------|
|---------------|----------------|----------------|
|---------------|----------------|----------------|
|---------------|----------------|----------------|
|---------------|----------------|----------------|
|------19-21-19-|-21---23-(23)---|-(23)-----23-23-|
|
| W                H.                W
|---------------|--7-------------|----------------|
|---------------|--7-------------|----------------|
|---------------|--8-------------|----------------|
|---------------|--9-------------|----------------|
|---------------|----------------|----------------|
|---------------|----------------|----------------|


   H.         +H.        W
|----------|-----------|-----------|
|----------|-----------|-----------|
|----------|-----------|-----------|
|----------|-----------|-----------|
|-21-------|-(21)------|-----------|
|----------|-----------|-----------|
|
| Gtr II
|  W           W         H.
|----------|-----------|-2---------|
|----------|-----------|-2---------|
|----------|-----------|-3---------|
|----------|-----------|-4---------|
|----------|-----------|-4---------|
|----------|-----------|-2---------|
|
| Gtr III
|  H.          W         W
|----------|-----------|-----------|
|-11-------|-----------|-----------|
|-11-------|-----------|-----------|
|-11-------|-----------|-----------|
|--9-------|-----------|-----------|
|----------|-----------|-----------|


   Q.    Q.      E   E  E  +Q.      +Q.    Q.
|-------------|------------------|---------------|
|-------------|------------------|---------------|
|-------------|------------------|---------------|
|-------------|-23--21-21-(21)---|-(21)----------|
|-------21----|------------------|--------21-----|
|-------------|------------------|---------------|
|
| +H.            H.                 +H.
|-(2)---------|------------------|---------------|
|-(2)---------|--4---------------|--(4)----------|
|-(3)---------|--4---------------|--(4)----------|
|-(4)---------|--4---------------|--(4)----------|
|-(4)---------|--2---------------|--(2)----------|
|-(2)---------|------------------|---------------|
|
|  W             H.                 +H.
|-------------|------------------|---------------|
|-------------|------------------|---------------|
|-------------|--8---------------|--(8)----------|
|-------------|--9---------------|--(9)----------|
|-------------|--9---------------|--(9)----------|
|-------------|--7---------------|--(7)----------|


   E   E  E  +Q.      +Q.    E  E  E    H.
|------------------|-----------------|----------|
|------------------|-----------------|----------|
|------------------|--------------20-|----------|
|-23--21-21-(21)---|-(21)---21-23----|-20-------|
|------------------|-----------------|----------|
|------------------|-----------------|----------|
|
| Gtrs II, III
|  H.                 +H.               H.
|--4---------------|--(4)------------|--6-------|
|--4---------------|--(4)------------|--7-------|
|--4---------------|--(4)------------|--6-------|
|--6---------------|--(6)------------|--8-------|
|--6---------------|--(6)------------|--6-------|
|--4---------------|--(4)------------|----------|


   Q.   E  E  E    Q.    Q.      Q.    Q   E
|---------------|-------------|--------------|
|---------------|-------------|--------------|
|---------------|-------16----|-15-----------|
|---------18-16-|-18----------|-------16--16-|
|---------------|-------------|--------------|
|---------------|-------------|--------------|
|
| +H.              H.            H.
|-(6)-----------|-------------|--2-----------|
|-(7)-----------|--9----------|--2-----------|
|-(6)-----------|--9----------|--3-----------|
|-(8)-----------|--9----------|--4-----------|
|-(6)-----------|--7----------|--4-----------|
|---------------|-------------|--2-----------|


   E   E  E  +Q.      +Q.   Q   E   E  E E +Q.
|------------------|--------------|-9--7-7-(7)---|
|-14--12-12-(12)---|-(12)---------|--------------|
|------------------|-----------11-|--------------|
|------------------|--------------|--------------|
|------------------|--------------|--------------|
|------------------|--------------|--------------|
|
|  H.                 +H.           H.
|------------------|--------------|-4------------|
|--4---------------|--(4)---------|-4------------|
|--4---------------|--(4)---------|-4------------|
|--4---------------|--(4)---------|-6------------|
|--2---------------|--(2)---------|-6------------|
|------------------|--------------|-4------------|


  +Q.   E E  E    H.         +Q.   E E E
|-(7)---7-9-11-|----------|--------------|
|--------------|-11-------|-(11)-----9-7-|
|--------------|----------|--------------|
|--------------|----------|--------------|
|--------------|----------|--------------|
|--------------|----------|--------------|
|
| +H.             H.         +H.
|-(4)----------|--6-------|--(6)---------|
|-(4)----------|--7-------|--(7)---------|
|-(4)----------|--6-------|--(6)---------|
|-(6)----------|--8-------|--(8)---------|
|-(6)----------|--6-------|--(6)---------|
|-(4)----------|----------|--------------|


  Q.   Q.      Q.   Q.      E  E E +Q.
|------7----|--6---------|--9--7-7-(7)-------|
|-9---------|-------7----|-------------------|
|-----------|------------|-------------------|
|-----------|------------|-------------------|
|-----------|------------|-------------------|
|-----------|------------|-------------------|
|
| Gtr II
| H.           H.           Q.      E   E  E
|-----------|------------|-------------------|
|-9---------|-11---------|-------------------|
|-9---------|-11---------|--7-------7---7--7-|
|-9---------|-11---------|-------------------|
|-7---------|--9---------|-------------------|
|-----------|------------|-------------------|
|
| Gtr III
| H.           H.           Q.      E   E  E
|-----------|------------|-------------------|
|-9---------|-11---------|-------------------|
|-9---------|-11---------|-------------------|
|-9---------|-11---------|-------------------|
|-7---------|--9---------|-10------10--10-10-|
|-----------|------------|-------------------|


  +H.               W             W
|-(7)------------|-------------|--------------|
|----------------|-------------|--------------|
|----------------|-------------|--------------|
|----------------|-------------|--------------|
|----------------|-------------|--------------|
|----------------|-------------|--------------|
|
|  Q.    E  E  E    Q.    Q.      Q.    Q   E
|----------------|--------5----|--5---------5-|
|-----------5--7-|-------------|--------7-----|
|--7-----7-------|--7----------|--------------|
|----------------|-------------|--------------|
|----------------|-------------|--------------|
|----------------|-------------|--------------|
|
|  Q.    E  E  E    Q.    Q.      Q.    Q   E
|----------------|-------------|--------------|
|----------------|-------------|--------------|
|----------------|-------------|--------------|
|----------------|-------------|--------------|
|-10----10-12-14-|-------17----|-17--------17-|
|----------------|-15----------|-------19-----|


  Gtr II
   Q.    E  E  E    Q.    E  E  E   Q.   E E E   E  E E E E E   E  E E E E E
|--3-----3--3--3-|--2-----2--2--2-|------4-5-4-|-7--7-7-9-7-5-|-4--4-4-5-4-2--|
|----------------|----------------|-5----5-5-5-|-7--7-7-7-7---|-5--5-5-5-5----|
|----------------|----------------|------------|--------------|---------------|
|----------------|----------------|------------|--------------|---------------|
|----------------|----------------|------------|--------------|---------------|
|----------------|----------------|------------|--------------|---------------|
|
| Gtr III
|  Q.    E  E  E    Q.    E  E  E   H.           H.             H.
|----------------|----------------|------------|--------------|---------------|
|----------------|----------------|------------|--------------|---------------|
|----------------|----------------|------------|-4------------|-6-------------|
|----------------|----------------|-2----------|-4------------|-6-------------|
|-15----15-14-15-|----------------|------------|-2------------|-4-------------|
|----------------|-17----17-17-17-|------------|--------------|---------------|


  Q   S S  Q   S  S    E   E  E  E  E  E
|---------12--12----|--------------------|
|-5--------------14-|-14--14-14-14-16-14-|
|-------------------|-14--14-14-14-14-14-|
|-------------------|--------------------|
|-------------------|--------------------|
|-----6-6-----------|--------------------|
|
| H.                   H.
|-------------------|--------------------|
|-------------------|--------------------|
|-6-----------------|--------------------|
|-6-----------------|--4-----------------|
|-4-----------------|--4-----------------|
|-------------------|--2-----------------|


   E   E  E  E  E  E    E   E  E  E E E   E  E E E E E
|--------------------|------------------|---------------|
|-12--12-12-12-14-12-|-12--12-12-12-----|----------7-7--|
|-13--13-13-13-13-13-|-11--11-11-11---9-|-8-------------|
|--------------------|--------------9---|----9-9-9------|
|--------------------|------------------|---------------|
|--------------------|------------------|---------------|
|
|  H.                   H.                H.
|--------------------|------------------|---------------|
|--5-----------------|------------------|---------------|
|--4-----------------|--4---------------|-4-------------|
|--2-----------------|--4---------------|-4-------------|
|--------------------|--2---------------|-2-------------|
|--------------------|------------------|---------------|


  E  E E E E E   Q   E  Q   E    E   E  E  E  E E
|--------------|-----7-12-----|-------------------|
|-9--9-9-9-7-5-|-4-----12-----|-------------------|
|-9--9-9-9-----|--------------|-13--13-13-13-11-9-|
|--------------|--------------|-14--14-14-14------|
|--------------|-----------14-|-------------------|
|--------------|--------------|-------------------|
|
| H.             H.              H.
|--------------|--------------|-------------------|
|-5------------|--------------|-------------------|
|-4------------|-4------------|--6----------------|
|-2------------|-4------------|--6----------------|
|--------------|-2------------|--4----------------|
|--------------|--------------|-------------------|


  E  E  E Q.     Q   E E E E   S  S E E E E E
|--------------|-------------|------------------|
|--------------|-------------|------------------|
|-8------------|-------------|------------------|
|----9-11-9----|-7---7-7-9-9-|-9--7-6-6-7-6-----|
|--------------|-------------|--------------7---|
|--------------|-------------|------------------|
|
| H.             H.            H.
|--------------|-------------|------------------|
|--------------|-------------|-5----------------|
|-6------------|-------------|-4----------------|
|-6------------|-4-----------|-2----------------|
|-4------------|-4-----------|------------------|
|--------------|-2-----------|------------------|


  E  S S S S S S S S S S   S   S  S  S  S  S  S  S  S  S  S  S
|------------------------|-------------------------------------|
|------------------------|----------------------10-10-10-10-10-|
|-7--7-7-7-7-7-9-9-9-9-9-|-9--11-11-11-11-11-11----------------|
|-0--0-0-0-0-0-----------|-----------------------7--7--7--7--7-|
|--------------7-7-7-7-7-|-7---9--9--9--9--9--9----------------|
|------------------------|-------------------------------------|
|
| H.                       H.
|------------------------|-------------------------------------|
|-3----------------------|-3-----------------------------------|
|-2----------------------|-2-----------------------------------|
|-0----------------------|-0-----------------------------------|
|------------------------|-------------------------------------|
|------------------------|-------------------------------------|


   S  S S S S S S  S  S  S  S  S
|--------------------------------|
|-10--9-9-9-9-9-9-10-10-10-10-10-|
|--------------------------------|
|--7--6-6-6-6-6-6--7--7--7--7--7-|
|--------------------------------|
|--------------------------------|
|
|  H.
|--------------------------------|
|--5-----------------------------|
|--4-----------------------------|
|--2-----------------------------|
|--------------------------------|
|--------------------------------|


   S   S  S  S  S  S  E  E E   Q.   Q.     Q.   E E E   Q.   Q.     Q.   E E E
|-12--12-12-12-12-12-12------|-----------|------5-7-5-|-7----5----|------5-5-5-|
|----------------------------|-7---------|-7----------|-----------|-5----------|
|--9---9--9--9--9--9--9------|------6----|------------|-----------|------------|
|----------------------------|-----------|------------|-----------|------------|
|----------------------------|-----------|------------|-----------|------------|
|--------------------13------|-----------|------------|-----------|------------|
|
|  Q.                 Q.       Q.   Q.     Q.   E E E   Q.   Q.     Q.   E E E
|----------------------------|-----------|------2-2-2-|-3---------|------------|
|--5-------------------------|-----------|------------|------5----|------7-7-7-|
|--4-------------------------|-2---------|-2----------|-----------|-6----------|
|--2------------------3------|------4----|------------|-----------|------------|
|----------------------------|-----------|------------|-----------|------------|
|----------------------------|-----------|------------|-----------|------------|


  Q.   Q.     Q.   E E E   Q.   Q.
|-4---------|-7----7-7-7-|-7----5----|
|------5----|------------|-----------|
|-----------|------------|-----------|
|-----------|------------|-----------|
|-----------|------------|-----------|
|-----------|------------|-----------|
|
| Q.   Q.     Q.   E E E   Q.   Q.
|-----------|-4----4-4-4-|-2---------|
|-5---------|------------|------2----|
|------4----|------------|-----------|
|-----------|------------|-----------|
|-----------|------------|-----------|
|-----------|------------|-----------|


  Q.   Q.      Q.    Q.      Q.    E  E  E
|-7----7----|-------------|-------21-19-21-|
|-----------|-19----------|-19----19----19-|
|-----------|-19----19----|-19-------19----|
|-----------|-------19----|----------------|
|-----------|-------------|----------------|
|-----------|-------------|----------------|
|
| Q.   Q.      Q.    Q.      Q.    E  E  E
|-4----4----|--5----------|--5----14----14-|
|-----------|--------7----|----------15----|
|-----------|-------------|----------------|
|-----------|-------------|----------------|
|-----------|-------------|----------------|
|-----------|-------------|----------------|


   H     +E.  S    S  Q   +S   E  E  E    Q.    Q.
|-21----(21)-21-|-22-21--(21)-21-21-21-|-19----------|
|-24----(24)-22-|-24-22--(22)-22-24-22-|-21----21----|
|---------------|----------------------|-------21----|
|---------------|----------------------|-------------|
|---------------|----------------------|-------------|
|---------------|----------------------|-------------|
|
|  H     +E.  S    S  Q   +S   E  E  E    Q.    Q.
|-14----(14)-12-|-14-12--(12)-12-12-12-|-12----------|
|---------------|----------------------|-------12----|
|---------------|----------------------|-------------|
|---------------|----------------------|-------------|
|---------------|----------------------|-------------|
|---------------|----------------------|-------------|


   Q.    E  E  E    Q.    Q.      Q.    Q.
|-24----24-24-24-|-22----------|-21----23-----|
|-24----24-24-24-|-24----24----|-22----24-----|
|----------------|-------24----|--------------|
|----------------|-------------|--------------|
|----------------|-------------|--------------|
|----------------|-------------|--------------|
|
|  Q.    E  E  E    Q.    Q.      H.
|-16----16-16-16-|-15----------|--------------|
|----------------|-------15----|-17-----------|
|----------------|-------------|--------------|
|----------------|-------------|--------------|
|----------------|-------------|--------------|
|----------------|-------------|--------------|


  Gtr I
   Q.   E E E   H    E E   E E E Q.     Q.   Q  E   Q.   E E E   H    E E
|-------------|----------|------------|-----------|------------|----------|
|-----------7-|----------|-2----------|-----------|-5----5-7-9-|----------|
|--8----8-9---|-6----4-3-|---4-4-4----|---------4-|------------|-8----6-4-|
|-------------|----------|------------|-----------|------------|----------|
|-------------|----------|------------|-----------|------------|----------|
|-------------|----------|------------|-----------|------------|----------|
|
| Gtr II
|  H.           W          W            W           W            W
|-23----------|----------|------------|-----------|------------|----------|
|-24----------|----------|------------|-----------|------------|----------|
|-------------|----------|------------|-----------|------------|----------|
|-------------|----------|------------|-----------|------------|----------|
|-------------|----------|------------|-----------|------------|----------|
|-------------|----------|------------|-----------|------------|----------|


  E E E +Q.     W          Q.   E E E   H    E E   E E E +Q.     Q  E E E E
|-------------|----------|------------|----------|-------------|------7-6----|
|-4-2-2-(2)---|----------|-4----4-5-7-|----------|-2-----------|----------7--|
|-------------|----------|------------|-6----4-3-|---4-4-(4)---|----4--------|
|-------------|----------|------------|----------|-------------|-------------|
|-------------|----------|------------|----------|-------------|-------------|
|-------------|----------|------------|----------|-------------|-------------|


  H.        +Q.   E E E   H.        H.        +H.        Q.   Q.
|---------|-------7-6-7-|-7-------|-9-------|-(9)------|-----------|
|-9-------|-(9)---------|---------|---------|----------|------7----|
|---------|-------------|---------|---------|----------|-----------|
|---------|-------------|---------|---------|----------|-----------|
|---------|-------------|---------|---------|----------|-----------|
|---------|-------------|---------|---------|----------|-----------|


  E  E E +Q.     +Q.   Q.     E  E E +Q.
|-9--7-7-(7)---|-(7)--------|-9--7-7-(7)---|
|--------------|-------7----|--------------|
|--------------|------------|--------------|
|--------------|------------|--------------|
|--------------|------------|--------------|
|--------------|------------|--------------|
|
| Gtrs II, III
| H.             +H.          H.
|--------------|------------|-4------------|
|-4------------|-(4)--------|-4------------|
|-4------------|-(4)--------|-4------------|
|-4------------|-(4)--------|-6------------|
|-2------------|-(2)--------|-6------------|
|--------------|------------|-4------------|


  +Q.   E E  E    H.         Q.   E E E
|-(7)---7-9-11-|----------|-------------|
|--------------|-11-------|---------9-7-|
|--------------|----------|-------------|
|--------------|----------|-------------|
|--------------|----------|-------------|
|--------------|----------|-------------|
|
| +H.             H.        +H.
|-(4)----------|--6-------|-(6)---------|
|-(4)----------|--7-------|-(7)---------|
|-(4)----------|--6-------|-(6)---------|
|-(6)----------|--8-------|-(8)---------|
|-(6)----------|--6-------|-(6)---------|
|-(4)----------|----------|-------------|


  Q.   Q.     Q.   Q  E   E  E E +Q.
|------7----|-6---------|-9--7-7-(7)---|
|-9---------|------7--7-|--------------|
|-----------|-----------|--------------|
|-----------|-----------|--------------|
|-----------|-----------|--------------|
|-----------|-----------|--------------|
|
| H.          H.          H.
|-----------|-2---------|--------------|
|-9---------|-2---------|-4------------|
|-9---------|-3---------|-4------------|
|-9---------|-4---------|-4------------|
|-7---------|-4---------|-2------------|
|-----------|-2---------|--------------|


  +Q.   Q  E   E  E E +Q.     +Q.   E E  E
|-(7)--------|-9--7-7-(7)---|-(7)---7-9-11-|
|----------7-|--------------|--------------|
|------------|--------------|--------------|
|------------|--------------|--------------|
|------------|--------------|--------------|
|------------|--------------|--------------|
|
| +H.          H.             +H.
|------------|-4------------|-(4)----------|
|-(4)--------|-4------------|-(4)----------|
|-(4)--------|-4------------|-(4)----------|
|-(4)--------|-6------------|-(6)----------|
|-(2)--------|-6------------|-(6)----------|
|------------|-4------------|-(4)----------|


   H.         +Q.   E E E   Q.   Q.      H.        H.        Q.   E  E E
|----------|--------------|------7----|--6-------|-7-------|-------------|
|-11-------|-(11)-----9-7-|-9---------|----------|---------|-------------|
|----------|--------------|-----------|----------|---------|-------------|
|----------|--------------|-----------|----------|---------|------9-11-9-|
|----------|--------------|-----------|----------|---------|-------------|
|----------|--------------|-----------|----------|---------|-------------|
|
|                                                  Gtr III
|  H.         +H.           H.           H.        H.        W
|--6-------|--(6)---------|-----------|----------|-7-------|-------------|
|--7-------|--(7)---------|-9---------|-11-------|-9-------|-------------|
|--6-------|--(6)---------|-9---------|-11-------|-8-------|-------------|
|--8-------|--(8)---------|-9---------|-11-------|-9-------|-------------|
|--6-------|--(6)---------|-7---------|--9-------|-7-------|-------------|
|----------|--------------|-----------|----------|---------|-------------|


   Q    E  +Q.      +Q.   E  E  E    H.
|----------------|----------------|----------|
|----------------|----------------|----------|
|----------------|----------------|----------|
|-11---13-(13)---|-(13)-----14-14-|-16-------|
|----------------|----------------|----------|
|----------------|----------------|----------|
|
|  H.                W               H.
|--7-------------|----------------|----------|
|--7-------------|----------------|-11-------|
|--8-------------|----------------|-11-------|
|--9-------------|----------------|-11-------|
|----------------|----------------|--9-------|
|----------------|----------------|----------|


  Q.    E  E  E    Q    E  +Q.      +Q.   Q   E
|---------------|----------------|--------------|
|---------------|----------------|--------------|
|---------------|----------------|--------------|
|------16-18-20-|-20---21-(21)---|-(21)---------|
|---------------|----------------|-----------23-|
|---------------|----------------|--------------|
|
| W                H.                W
|---------------|----------------|--------------|
|---------------|--9-------------|--------------|
|---------------|--8-------------|--------------|
|---------------|--9-------------|--------------|
|---------------|-11-------------|--------------|
|---------------|----------------|--------------|


   H.        Q.    E  E  E    Q    E  +Q.
|----------|---------------|----------------|
|----------|---------------|----------------|
|----------|---------------|----------------|
|-21-------|---------------|----------------|
|----------|---------------|----------------|
|----------|------19-21-19-|-21---23-(23)---|
|
|  H.        W                H.
|----------|---------------|--7-------------|
|--9-------|---------------|--7-------------|
|--9-------|---------------|--8-------------|
|--9-------|---------------|--9-------------|
|--7-------|---------------|----------------|
|----------|---------------|----------------|


   +Q.   E  E  E    H.         +H.
|----------------|----------|---------|
|----------------|----------|---------|
|----------------|----------|---------|
|----------------|----------|---------|
|----------------|-21-------|-(21)----|
|-(23)-----23-23-|----------|---------|
|
|   W               H.          W
|----------------|----------|---------|
|----------------|-11-------|---------|
|----------------|-11-------|---------|
|----------------|-11-------|---------|
|----------------|--9-------|---------|
|----------------|----------|---------|


  W          Q.      Q.        E  E  E  +Q.
|---------|-----------------|-----------------|
|---------|-----------------|-----------------|
|---------|-----------------|-----------------|
|---------|-----------------|-23-21-21-(21)---|
|---------|---------21------|-----------------|
|---------|-----------------|-----------------|
|
| Gtr II
| H.        +H.                W
|-2-------|-(2)-------------|-----------------|
|-2-------|-(2)-------------|-----------------|
|-3-------|-(3)-------------|-----------------|
|-4-------|-(4)-------------|-----------------|
|-4-------|-(4)-------------|-----------------|
|-2-------|-(2)-------------|-----------------|
|
| Gtr III
| W          E  E E  E  E E    W
|---------|-----------------|-----------------|
|---------|-------7-------7-|-----------------|
|---------|-----6-------6---|-----------------|
|---------|--8-------8------|-----------------|
|---------|-----------------|-----------------|
|---------|-----------------|-----------------|


   +Q.    Q.      E  E  E  +Q.      +Q.    E  E  E
|--------------|-----------------|-----------------|
|--------------|-----------------|-----------------|
|--------------|-----------------|--------------20-|
|-(21)---------|-23-21-21-(21)---|-(21)---21-23----|
|--------21----|-----------------|-----------------|
|--------------|-----------------|-----------------|
|
|   W             W                  W
|--------------|-----------------|-----------------|
|--------------|-----------------|-----------------|
|--------------|-----------------|-----------------|
|--------------|-----------------|-----------------|
|--------------|-----------------|-----------------|
|--------------|-----------------|-----------------|
|
|   W             W                  W
|--------------|-----------------|-----------------|
|--------------|-----------------|-----------------|
|--------------|-----------------|-----------------|
|--------------|-----------------|-----------------|
|--------------|-----------------|-----------------|
|--------------|-----------------|-----------------|


   H.         +Q.   E  E  E    Q.    Q.
|----------|----------------|-------------|
|----------|----------------|-------------|
|----------|----------------|-------16----|
|-20-------|-(20)-----18-16-|-18----------|
|----------|----------------|-------------|
|----------|----------------|-------------|


   Q.    Q.      E  E  E  +Q.      +Q.    Q.
|-------------|-----------------|--------------|
|-------------|-14-12-12-(12)---|-(12)---------|
|-15----------|-----------------|--------11----|
|-------16----|-----------------|--------------|
|-------------|-----------------|--------------|
|-------------|-----------------|--------------|


  E E E +Q.     +Q.   E  E  E    H.
|-9-7-7-(7)---|-(7)---7--9-11-|----------|
|-------------|---------------|-11-------|
|-------------|---------------|----------|
|-------------|---------------|----------|
|-------------|---------------|----------|
|-------------|---------------|----------|
|
| Gtr III
| W              Q.   Q.         H.
|-------------|-------7-------|-11-------|
|-------------|--9------------|----------|
|-------------|---------------|----------|
|-------------|---------------|----------|
|-------------|---------------|----------|
|-------------|---------------|----------|


   +Q.    E  E E    Q.    Q.      Q.   Q.
|----------------|--------7----|--6---------|
|-(11)-------9-7-|--9----------|-------7----|
|----------------|-------------|------------|
|----------------|-------------|------------|
|----------------|-------------|------------|
|----------------|-------------|------------|
|
|   Q.    Q.        Q.    Q.      Q.   Q.
|----------------|-------------|-------9----|
|---9----11------|-12----------|-11---------|
|----------------|-------13----|------------|
|----------------|-------------|------------|
|----------------|-------------|------------|
|----------------|-------------|------------|


  E  E E +Q.     +Q.   Q.     E  E E +Q.
|-9--7-7-(7)---|-(7)--------|-9--7-7-(7)---|
|--------------|-------7----|--------------|
|--------------|------------|--------------|
|--------------|------------|--------------|
|--------------|------------|--------------|
|--------------|------------|--------------|
|
| Gtr II
| H.             +H.          H.
|--------------|------------|-4------------|
|-4------------|-(4)--------|-4------------|
|-4------------|-(4)--------|-4------------|
|-4------------|-(4)--------|-6------------|
|-2------------|-(2)--------|-6------------|
|--------------|------------|-4------------|
|
| Gtr III
| H.             +H.          H.
|--------------|------------|-4------------|
|--------------|------------|-4------------|
|-8------------|-(8)--------|-4------------|
|-9------------|-(9)--------|-6------------|
|-9------------|-(9)--------|-6------------|
|-7------------|-(7)--------|-4------------|


  +Q.   E E  E    H.         Q.   E E E
|-(7)---7-9-11-|----------|-------------|
|--------------|-11-------|---------9-7-|
|--------------|----------|-------------|
|--------------|----------|-------------|
|--------------|----------|-------------|
|--------------|----------|-------------|
|
| +H.             H.        +H.
|-(4)----------|--6-------|-(6)---------|
|-(4)----------|--7-------|-(7)---------|
|-(4)----------|--6-------|-(6)---------|
|-(6)----------|--8-------|-(8)---------|
|-(6)----------|--6-------|-(6)---------|
|-(4)----------|----------|-------------|
|
| +H.             H.        +H.
|-(4)----------|--6-------|-(6)---------|
|-(4)----------|--7-------|-(7)---------|
|-(4)----------|--6-------|-(6)---------|
|-(6)----------|--8-------|-(8)---------|
|-(6)----------|--6-------|-(6)---------|
|-(4)----------|----------|-------------|


  Q.   Q.     Q.   Q  E   E  E E +Q.
|------7----|-6---------|-9--7-7-(7)---|
|-9---------|------7--7-|--------------|
|-----------|-----------|--------------|
|-----------|-----------|--------------|
|-----------|-----------|--------------|
|-----------|-----------|--------------|
|
| Gtrs II, III
| H.          H.          H.
|-----------|-2---------|--------------|
|-9---------|-2---------|-4------------|
|-9---------|-3---------|-4------------|
|-9---------|-4---------|-4------------|
|-7---------|-4---------|-2------------|
|-----------|-2---------|--------------|


  +Q.   Q  E   E  E E +Q.     +Q   E E E  E
|-(7)--------|-9--7-7-(7)---|-(7)--7-7-9-11-|
|----------7-|--------------|---------------|
|------------|--------------|---------------|
|------------|--------------|---------------|
|------------|--------------|---------------|
|------------|--------------|---------------|
|
| +H.          H.             +H.
|------------|-4------------|-(4)-----------|
|-(4)--------|-4------------|-(4)-----------|
|-(4)--------|-4------------|-(4)-----------|
|-(4)--------|-6------------|-(6)-----------|
|-(2)--------|-6------------|-(6)-----------|
|------------|-4------------|-(4)-----------|


   H.         +Q.   E E E   Q.   Q.
|----------|--------------|------7----|
|-11-------|-(11)-----9-7-|-9---------|
|----------|--------------|-----------|
|----------|--------------|-----------|
|----------|--------------|-----------|
|----------|--------------|-----------|
|
| Gtr II
|  H.         +H.           H.
|--6-------|--(6)---------|-----------|
|--7-------|--(7)---------|-9---------|
|--6-------|--(6)---------|-9---------|
|--8-------|--(8)---------|-9---------|
|--6-------|--(6)---------|-7---------|
|----------|--------------|-----------|
|
| Gtr III
|  H.         +H.           H.
|--6-------|--(6)---------|-----------|
|--7-------|--(7)---------|-9---------|
|--6-------|--(6)---------|-9---------|
|--8-------|--(8)---------|-9---------|
|--6-------|--(6)---------|-7---------|
|----------|--------------|-----------|


   Q.   Q.      E  E E +Q.      +H.
|--6---------|--9--7-7-(7)---|--(7)------------|
|-------7----|---------------|-----------------|
|------------|---------------|-----------------|
|------------|---------------|-----------------|
|------------|---------------|-----------------|
|------------|---------------|-----------------|
|
|  H.           H.              +H.
|------------|---------------|-----------------|
|-11---------|---------------|-----------------|
|-11---------|--8------------|--(8)------------|
|-11---------|--9------------|--(9)------------|
|--9---------|--9------------|--(9)------------|
|------------|--7------------|--(7)------------|
|
|  H.           H.              +Q.    E  E  E
|------------|-11------------|-(11)---11-12-11-|
|-11---------|---------------|-----------------|
|-11---------|---------------|-----------------|
|-11---------|---------------|-----------------|
|--9---------|---------------|-----------------|
|------------|---------------|-----------------|


  Gtr II
   H.         +H.               H.
|--2-------|--(2)------------|--4-------------|
|--2-------|--(2)------------|--4-------------|
|--3-------|--(3)------------|--4-------------|
|--4-------|--(4)------------|--6-------------|
|--4-------|--(4)------------|--6-------------|
|--2-------|--(2)------------|--4-------------|
|
| Gtr III
|  H.         +Q.    E  E  E    Q    E  +Q.
|-14-------|-(14)---14-16-18-|-18---19-(19)---|
|----------|-----------------|----------------|
|----------|-----------------|----------------|
|----------|-----------------|----------------|
|----------|-----------------|----------------|
|----------|-----------------|----------------|


    H.            H.                H.
|---2----------|--4-------------|---6----------|
|---2----------|--5-------------|---7----------|
|---3----------|--4-------------|---6----------|
|---4----------|--2-------------|---4----------|
|---4----------|----------------|--------------|
|---2----------|----------------|--------------|
|
|  +Q.    Q.      Q    E  +Q.      +Q.    Q.
|-(19)---18----|-18---19-(19)---|-(19)---18----|
|--------------|----------------|--------------|
|--------------|----------------|--------------|
|--------------|----------------|--------------|
|--------------|----------------|--------------|
|--------------|----------------|--------------|


                                           Q=60
   H.               +H.         +H.         +H.
|----------------|-----------|-----------|---------*|
|----------------|-----------|-----------|---------*|
|----------------|-----------|-----------|---------*|
|----------------|-----------|-----------|---------*|
|--2-------------|--(2)------|--(2)------|--(2)----*|
|----------------|-----------|-----------|---------*|
|
|  Q    E  +Q.      +H.         +H.         +H.
|-21---19-(19)---|-(19)------|-(19)------|-(19)----*|
|----------------|-----------|-----------|---------*|
|----------------|-----------|-----------|---------*|
|----------------|-----------|-----------|---------*|
|----------------|-----------|-----------|---------*|
|----------------|-----------|-----------|---------*|



Duration Legend
---------------
W - whole; H - half; Q - quarter; E - 8th; S - 16th; T - 32nd; X - 64th; a - acciaccatura
+ - note tied to previous; . - note dotted; .. - note double dotted
Uncapitalized letters represent notes that are staccato (1/2 duration)
Irregular groupings are notated above the duration line
Duration letters will always appear directly above the note/fret number it represents the
duration for.  Duration letters with no fret number below them represent rests.  Multi-
bar rests are notated in the form Wxn, where n is the number of bars to rest for.  Low
melody durations appear below the staff

Tablature Legend
----------------
 h   - hammer-on
 p   - pull-off
 b   - bend
 pb  - pre-bend
 r   - bend release (if no number after the r, then release immediately)
 /\  - slide into or out of (from/to "nowhere")
 s   - legato slide
 S   - shift slide
 - natural harmonic
[n]  - artificial harmonic
n(n) - tapped harmonic
 ~   - vibrato
 tr  - trill
 T   - tap
 TP  - trem. picking
 PM  - palm muting
\n/  - tremolo bar dip; n = amount to dip
 \n  - tremolo bar down
 n/  - tremolo bar up
/n\  - tremolo bar inverted dip
 =   - hold bend; also acts as connecting device for hammers/pulls
 <> - volume swell (louder/softer)
 x   - on rhythm slash represents muted slash
 o   - on rhythm slash represents single note slash

Misc Legend
-----------
 |  - bar
||  - double bar
||o - repeat start
o|| - repeat end
*|  - double bar (ending)
 :  - bar (freetime)
 $  - Segno
 &  - Coda
Tempo markers -  = BPM(8/16=s8/s16), where s8 = swing 8ths, s16 = swing 16ths





Comments


Popular X Japan tabs & chords
Alive Bass Tabs
Art Of Life Bass Tabs
Ill Kill You Bass Tabs
Amethyst Tabs
Endless Rain 1 Tabs
Endless Rain 2 Tabs
Joker Tabs
Miscast Tabs
Rose Of Pain Tabs
Silent Jealousy Tabs


Song lyrics



↑ Back to top | Tablatures and chords are parodies/interpretations of the original songs. You may use it for private study, scholarship, research or language learning purposes only
© 2014 AZChords.com Contact us | Privacy policy | DMCA | Add/correct tabs | Request tabs | Top 50 tabs