>
 >
Art Of Life

Art Of Life Guitar Tabs

X Japan - Art Of Life chords, tabs, tablatures, lyrics

Guitar lessons | Add/correct | Request | Top 50 tabs Artists:  A B C D E F G H I J K L M N O P Q R S T U V W X Y Z 0-9

Art Of Life Guitar Tabs – X Japan

CD, Sheet music, Poster

Do you like Art Of Life? Share with your friends now
Bass TabsBass Tabs v2ChordsTabsTabs v2Ukulele

ART OF LIFE
As recorded by X Japan
(From the 1993 Album ART OF LIFE)

	

Words and Music by Yoshiki Hayashi

G6
x x x 0 0 0
	
D/F#
x x 4 2 3 x
	
Cm/G
x x 5 5 4 x
	
B
x x 9 8 7 x
Em+5
x x x 9 8 8
	
F#m+5
x x x 11 10 10
	
G6XII
x x x 12 12 12
	
Bm
x x x 16 15 14
Cm
x x x 17 16 15
	
C6
x x x 17 17 17
	
Fmaj7
x x 3 2 1 0
	
G
x x 5 4 3 x
Am/E
x x 2 2 1 x
	
A5
5 7 x x x x
	
F5
1 3 x x x x
	
E5
0 2 x x x x

Gtr I (E A D G B E) - 'Clean 1, Piano (Right Hand), and Clavinet'
Gtr II (E A D G B E) - 'Clean 2'
Gtr III (E A D G B E) - 'Distortion 1'
Gtr IV (E A D G B E) - 'Distortion 2'
Gtr V (E A D G B E) - 'Distortion 3'

 Desert Rose (0:00)
  Q=75
 4/4
  Gtr II
  S S S S S S S S S S S S S S S S   S S S S S S S S S S S S S S S S
|---------0---------------0-------|---------2---------------2--------|
|-------0---0-----------0---0-----|-------0---0-----------0---0------|
|-----0-------0-------0-------0---|-----2-------2-------2-------2----|
|---2-----------2---2-----------2-|---1-----------1---1-----------1--|
|-3---------------3---------------|-2---------------2----------------|
|---------------------------------|----------------------------------|


  S S S S S S S S S S S S S S S S   S S S S S S S S S S S S S S S S
|---------0---------------0-------|---------2---------------2-------|
|-------0---0-----------0---0-----|-------0---0-----------0---0-----|
|-----0-------0-------0-------0---|-----2-------2-------2-------2---|
|---2-----------2---2-----------2-|---1-----------1---1-----------1-|
|-3---------------3---------------|-2---------------2---------------|
|---------------------------------|---------------------------------|


  S S S S   S  S S S S S S S S S S S   S S S S S S S S  S  S S S S S S S
|-----------0----------------0-------|---------2-----------------2-------|
|-------0------0-----------0---0-----|-------0---0-------------0---0-----|
|-----0----------0-------0-------0---|-----2-------2---------2-------2---|
|---2--------------2---2-----------2-|---1-----------1-----1-----------1-|
|-3------------------3---------------|-2----------------2----------------|
|------------------------------------|-----------------------------------|
|
| Gtr I
| Q         H.                         Q       E   E   +H
|---------^12------------------------|---------7---8---(8)---------------|
|---------^13------------------------|---------7-------------------------|
|-0-------^16------------------------|---------8-------------------------|
|-2-------^17------------------------|-----------------------------------|
|-3----------------------------------|-----------------------------------|
|------------------------------------|-----------------------------------|


  S S S S S S S S S S S  S S S S S   S S S S S S S   S S S   S S S S S S
|---------0----------------0-------|---------2-------------------2--------|
|-------0---0------------0---0-----|-------0---0---------------0---0------|
|-----0-------0-------0--------0---|-----2-------2-----------2-------2----|
|---2-----------2---2------------2-|---1-------------1---1-------------1--|
|-3---------------3----------------|-2-----------------2------------------|
|----------------------------------|--------------------------------------|
|
| Q       S S S S E   Q.             Q       S S T T S S Q..
|-------------5-7------------------|--------------------------------------|
|-------------5---1---0------------|-----------------0--------------------|
|-----------0----------------------|--------------------------------------|
|----------------------------------|-------------2-4---2-1----------------|
|---------3------------------------|-----------2--------------------------|
|----------------------------------|--------------------------------------|


  S S   S   S S S S S S S S S S S S S
|-------------0---------------0-------|
|-----------0---0-----------0---0-----|
|-------0---------0-------0-------0---|
|---2---------------2---2-----------2-|
|-3-------------------3---------------|
|-------------------------------------|
|
| |---3---|
| E   E   E   Q       E   S E   E   S
|-------------------------------------|
|-------------------------------------|
|---------------------2---------2-----|
|---------0---2-------------0---------|
|-----3-------------------3---------2-|
|-------------------------------------|


   S  S S S S S S S S S S S  S  S   S   S
|-----------2----------------2--------------|
|---------0---0-----------0-----0-----------|
|-------2-------2-------2-----------2-------|
|-----1-----------1---1-----------------1---|
|--2----------------2-----------------------|
|-------------------------------------------|
|
|                            |---3----|
| +S  E   S S E   S S E   S +E    E   E
|---------------------2---5-(5)---7---8-----|
|-----------------2-4-----------------------|
|---------2---------------------------------|
|-----4-------------------------------------|
|-(2)-------3-2-----------------------------|
|-------------------------------------------|


  S S S S S S S S  S S S S S S S S   S S S S S S S S S S  S S S S S S
|---------0----------------0-------|---------2----------------2-------|
|-------0---0------------0---0-----|-------0---0------------0---0-----|
|-----0-------0--------0-------0---|-----2-------2--------2-------2---|
|---2-----------2----2-----------2-|---1-----------1---1------------1-|
|-3----------------3---------------|-2---------------2----------------|
|----------------------------------|----------------------------------|
|
| H                H                 H               S E.     Q
|-7--------------------------------|--------------------------2-------|
|-----------------^0---------------|-------------------4------4-------|
|-----------------^0---------------|-------------------4------4-------|
|-----------------^2---------------|-------------------4--------------|
|-----------------^3---------------|----------------------------------|
|----------------------------------|----------------------------------|


    S S S S   S S S S S   S   S   S S   S   S S
|-------------0---------------------0-----------|
|---------0-----0-----------------0-----0-------|
|-------0---------0-----------0-------------0---|
|-----2-------------2-----2-------------------2-|
|---3-----------------3-------------------------|
|-----------------------------------------------|
|
|                     |----6----|   |--3--|
|   Q         Q       S S   S S E   S S   S E
|-^12-------^12---------0-----------------------|
|-^13-------^13-------0-----1-0-0-----0---------|
|-^16-------^16---------------------0-----0-----|
|-^17-------^17-----------------------------2---|
|-----------------------------------------------|
|-----------------------------------------------|


  S S S S S S S S  S  S S S S S S S
|---------2-----------------2--------|
|-------0---0-------------0---0------|
|-----2-------2---------2-------2----|
|---1-----------1-----1-----------1--|
|-2----------------2-----------------|
|------------------------------------|
|
| E   S S E   S S +H
|------------------------------------|
|---------------0-(0)----------------|
|-------------2----------------------|
|-----4-1----------------------------|
|---------2--------------------------|
|------------------------------------|


  S S S S S S  S S S S  S  S S S S S
|---------0------------------0-------|
|-------0---0--------------0---0-----|
|-----0--------0--------0--------0---|
|---2------------2---2-------------2-|
|-3----------------3-----------------|
|------------------------------------|
|
| E   S S S E.     E    Q.
|------------------0---12------------|
|-----------3------------------------|
|---------0--------------------------|
|-------2----------------------------|
|-----3------------------------------|
|------------------------------------|


  S  S S S S   S   S   S   S   S   S   S   S    S   S    S
|----------2-------------------------------2---------------|
|--------0-----0-----------------------0--------0----------|
|------2-----------2---------------2----------------2------|
|----1-----------------1-------1-------------------------1-|
|-2------------------------2-------------------------------|
|----------------------------------------------------------|
|
|          |------6------| |------6------| |-----6-----|
| E.     S S S   S S S   S S S   S S S   S S  S   S S  E
|----------------------------7-------7-----2-14---2-7-19---|
|--------------------------0-----0-4-----4-----------------|
|----------------------------------------------------------|
|----------1-----1-4-1---4---------------------------------|
|--------2---2---------------------------------------------|
|----------------------------------------------------------|


  S S S S S S S S S S S S S S S S   S S S S S S S S S S S S S S S S
|---------0---------------0-------|---------2---------------2-------|
|-------0---0-----------0---0-----|-------0---0-----------0---0-----|
|-----0-------0-------0-------0---|-----2-------2-------2-------2---|
|---2-----------2---2-----------2-|---1-----------1---1-----------1-|
|-3---------------3---------------|-2---------------2---------------|
|---------------------------------|---------------------------------|


  S S S S S S S S S S S S S S S S   S S S S S S S S S S S S S S S S
|---------0---------------0-------|---------2---------------2-------|
|-------0---0-----------0---0-----|-------0---0-----------0---0-----|
|-----0-------0-------0-------0---|-----2-------2-------2-------2---|
|---2-----------2---2-----------2-|---1-----------1---1-----------1-|
|-3---------------3---------------|-2---------------2---------------|
|---------------------------------|---------------------------------|


  S S S S S S S S S S S S S S S S   S S S S S S S S S S S S S S S S
|---------0---------------0-------|---------2---------------2-------|
|-------0---0-----------0---0-----|-------0---0-----------0---0-----|
|-----0-------0-------0-------0---|-----2-------2-------2-------2---|
|---2-----------2---2-----------2-|---1-----------1---1-----------1-|
|-3---------------3---------------|-2---------------2---------------|
|---------------------------------|---------------------------------|


  S S S S S S S S S S S S S S S S   S S S S S S S S S S S S S S S S
|---------0---------------0-------|---------2---------------2-------||
|-------0---0-----------0---0-----|-------0---0-----------0---------||
|-----0-------0-------0-------0---|-----2-------2-------2-----------||
|---2-----------2---2-----------2-|---1-----------1---1-------------||
|-3---------------3---------------|-2---------------2---------0-----||
|---------------------------------|-----------------------------3-2-||


  Gtr I
  E   E   E   E   E   E   E   E     E   E   E   E   E   E   E   E
|---------0---------------0-------|---------2---------------2-------|
|-----0-------0-------0-------0---|-----4-------4-------4-------4---|
|-0---------------0---------------|-4---------------4---------------|
|---------------------------------|---------------------------------|
|---------------------------------|---------------------------------|
|---------------------------------|---------------------------------|
|
| Gtr II
| S S S S S S S S S S S S S S S S   S S S S S S S S S S S S S S S S
|---------------------------------|---------------------------------|
|---------0---------------0-------|---------4---------------4-------|
|-----0-----0---0-----0-----0---0-|-----4-----4---4-----4-----4---4-|
|---2---2-----2-----2---2-----2---|---4---4-----4-----4---4-----4---|
|---------------------------------|-6---------------6---------------|
|-0---------------0---------------|---------------------------------|


  E   E   E   E   E   E   E   E     E   E   E   E   E   E   E   E
|---------5---------------5-------|---------0---------------2-------|
|-----7-------7-------7-------7---|-----1-------1-------4-------4---|
|-7---------------7---------------|-0---------------4---------------|
|---------------------------------|---------------------------------|
|---------------------------------|---------------------------------|
|---------------------------------|---------------------------------|
|
| S S S S S S S S S S S S S S S S   S S S S S S S S S S S S S S S S
|---------2---------------2-------|---------------------------------|
|-----3-----3---3-----3-----3---3-|---------1---------------1-------|
|---2---2-----2-----2---2-----2---|-----0-----0---0-----0-----0---0-|
|-0---------------0---------------|---2---2-----2-----2---2-----2---|
|---------------------------------|-3---------------3---------------|
|---------------------------------|---------------------------------|


  E   E   E   E   E   E   E   E     E   E   E   E   E   E   E   E
|---------0---------------0-------|---------5---------------5-------|
|-----0-------0-------0-------0---|-----7-------7-------7-------7---|
|-0---------------0---------------|-7---------------7---------------|
|---------------------------------|---------------------------------|
|---------------------------------|---------------------------------|
|---------------------------------|---------------------------------|
|
| S S S S S S S S S S S S S S S S   S S S S S S S S S S S S S S S S
|---------------------------------|---------2---------------2-------|
|---------0---------------0-------|-----3-----3---3-----3-----3---3-|
|-----0-----0---0-----0-----0---0-|---2---2-----2-----2---2-----2---|
|---2---2-----2-----2---2-----2---|-0---------------0---------------|
|---------------------------------|---------------------------------|
|-0---------------0---------------|---------------------------------|


  E   E   E   E   E   E   E   E     E   E   E   E   E   E   E   E
|---------3---------------3-------|---------5---------------5-------|
|-----5-------5-------1-------1---|-----7-------7-------7-------7---|
|-5---------------2---------------|-7---------------8---------------|
|---------------------------------|---------------------------------|
|---------------------------------|---------------------------------|
|---------------------------------|---------------------------------|
|
| S S S S S S S S S S S S S S S S   S S S S S S S S S S S S S S S S
|---------------------------------|---------2---------------2-------|
|---------1---------------1-------|-----3-----3---3-----0-----0---0-|
|-----0-----0---0-----0-----0---0-|---2---2-----2-----2---2-----2---|
|---2---2-----2-----2---2-----2---|-0---------------1---------------|
|-3---------------0---------------|---------------------------------|
|---------------------------------|---------------------------------|


  E   E   E   E   E   E   E   E     E   E   E   E   E   E   E   E
|---------0---------------0-------|---------2---------------2-------|
|-----0-------0-------0-------0---|-----4-------4-------4-------4---|
|-0---------------0---------------|-4---------------4---------------|
|---------------------------------|---------------------------------|
|---------------------------------|---------------------------------|
|---------------------------------|---------------------------------|
|
| S S S S S S S S S S S S S S S S   S S S S S S S S S S S S S S S S
|---------------------------------|---------------------------------|
|---------0---------------0-------|---------4---------------4-------|
|-----0-----0---0-----0-----0---0-|-----4-----4---4-----4-----4---4-|
|---2---2-----2-----2---2-----2---|---4---4-----4-----4---4-----4---|
|---------------------------------|-6---------------6---------------|
|-0---------------0---------------|---------------------------------|


  E   E   E   E   E   E   E   E     E   E   E   E   E   E   E   E
|---------5---------------5-------|---------5---------------5-------|
|-----7-------7-------7-------7---|-----5-------5-------5-------5---|
|-7---------------7---------------|-6---------------6---------------|
|---------------------------------|---------------------------------|
|---------------------------------|---------------------------------|
|---------------------------------|---------------------------------|
|
| S S S S S S S S S S S S S S S S   S S S S S S S S S S S S S S S S
|---------2---------------2-------|---------------------------------|
|-----3-----3---3-----3-----3---3-|---------2---------------2-------|
|---2---2-----2-----2---2-----2---|-----2-----2---2-----2-----2---2-|
|-0---------------0---------------|---2---2-----2-----2---2-----2---|
|---------------------------------|-4---------------4---------------|
|---------------------------------|---------------------------------|


  E   E   E   E   E   E   E   E     E   E   E   E   Q       Q
|---------0---------------0-------|---------------------------------|
|-----1-------1-------1-------0---|---------0-------1-------0-------|
|-0---------------0---------------|-----0-------0---2-------0-------|
|---------------------------------|---------------------------------|
|---------------------------------|---------------------------------|
|---------------------------------|-3-------------------------------|
|
| S S S S S S S S S S S S S S S S   S S S S S S S S S S S S S S S S
|---------------------------------|---------------------------------|
|---------1---------------1-------|---------0-----------1-------0---|
|-----0-----0---0-----0-----0---0-|-----0-----0---0---0---0---0---0-|
|---2---2-----2-----2---2-----2---|---0---0-----0---2-------0-------|
|-3---------------3---------------|---------------------------------|
|---------------------------------|-3-------------------------------|


  E   E   E   E   E   E   E   E     E   E   E   E   H
|---------5---------------5-------|---------7-------5----||
|-----7-------7-------7-------7---|-----8-------8---7----||
|-7---------------8---------------|-9---------------7----||
|---------------------------------|----------------------||
|---------------------------------|----------------------||
|---------------------------------|----------------------||
|
| S S S S S S S S S S S S S S S S   S S S S S S S S H
|---------2---------------2-------|---------0-------2----||
|-----3-----3---3-----0-----0---0-|-----0-----0---0-3----||
|---2---2-----2-----2---2-----2---|---0---0-----0---2----||
|-0---------------1---------------|-2---------------0----||
|---------------------------------|----------------------||
|---------------------------------|----------------------||


  E   E   E   E   E   E   E   E     E   E   E   E   E   E   E   E
|---------3---------------3-------|---------2---------------2-------|
|-----3-------3-------3-------3---|-----4-------4-------4-------4---|
|-4---------------4---------------|-4---------------4---------------|
|---------------------------------|---------------------------------|
|---------------------------------|---------------------------------|
|---------------------------------|---------------------------------|
|
| S S S S S S S S S S S S S S S S   S S S S S S S S S S S S S S S S
|---------------------------------|---------------------------------|
|---------0---------------0-------|---------0---------------0-------|
|-----0-----0---0-----0-----0---0-|-----2-----2---2-----2-----2---2-|
|---0---0-----0-----0---0-----0---|---1---2-----1-----1---2-----1---|
|---------------------------------|-2---------------2---------------|
|-3---------------3---------------|---------------------------------|


  E   E   E   E   E   E   E   E     E   E   E   E   E   E   E   E
|---------0---------------0-------|---------2---------------2-------|
|-----1-------1-------1-------1---|-----3-------3-------3-------3---|
|-0---------------0---------------|-2---------------2---------------|
|---------------------------------|---------------------------------|
|---------------------------------|---------------------------------|
|---------------------------------|---------------------------------|
|
| S S S S S S S S S S S S S S S S   S S S S S S S S S S S S S S S S
|---------------------------------|---------2---------------2-------|
|---------1---------------1-------|-----3-----3---3-----3-----3---3-|
|-----0-----0---0-----0-----0---0-|---2---2-----2-----2---2-----2---|
|---2---2-----2-----2---2-----2---|-0---------------0---------------|
|-3---------------3---------------|---------------------------------|
|---------------------------------|---------------------------------|


  E   E   E   E   E   E   E   E     E   E   E   E   E   E   E   E
|---------3---------------3-------|---------2---------------2-------|
|-----3-------3-------3-------3---|-----4-------4-------4-------4---|
|-4---------------4---------------|-4---------------4---------------|
|---------------------------------|---------------------------------|
|---------------------------------|---------------------------------|
|---------------------------------|---------------------------------|
|
| S S S S S S S S S S S S S S S S   S S S S S S S S S S S S S S S S
|---------------------------------|---------------------------------|
|---------0---------------0-------|---------0---------------0-------|
|-----0-----0---0-----0-----0---0-|-----2-----2---2-----2-----2---2-|
|---0---0-----0-----0---0-----0---|---1---2-----1-----1---2-----1---|
|---------------------------------|-2---------------2---------------|
|-3---------------3---------------|---------------------------------|


  E   E   E   E   E   E   E   E     E   E   E   E   E   E   E   E
|---------0---------------0-------|---------2---------------2-------|
|-----1-------1-------2-------2---|-----3-------2-------4-------4---|
|-0---------------2---------------|-2---------------4---------------|
|---------------------------------|---------------------------------|
|---------------------------------|---------------------------------|
|---------------------------------|---------------------------------|
|
| PM--------------------------------------------------------------|
| S S S S S S S S S S S S S S S S   S S S S S S S S S S S S S S S S
|---------------------------------|---------2---------------2-------|
|---------1---------------2-------|-----3-----3---3-----0-----0---0-|
|-----0-----0---0-----2-----2---2-|---2---2-----2-----2---2-----2---|
|---2---2-----2-----2---2-----2---|-0---------------1---------------|
|-3---------------4---------------|---------------------------------|
|---------------------------------|---------------------------------|


  E   E   E   E   E   E   E   E     E   E   E   E   E   E   E   E
|---------3-------5-------3-------|---------5-------7-------5-------|
|-----5-------5-------5-------5---|-----7-------7-------7-------7---|
|-4-------------------------------|-7-------------------------------|
|---------------------------------|---------------------------------|
|---------------------------------|---------------------------------|
|---------------------------------|---------------------------------|
|
| PM--------------------------------------------------------------|
| S S S S S S S S S S S S S S S S   S S S S S S S S S S S S S S S S
|---------0-------2-------0-------|---------2-------3-------2-------|
|-----0-----0---0---0---0---0---0-|-----3-----3---3---3---3---3---3-|
|---0---0-----0-------0-------0---|---2---2-----2-------2-------2---|
|-2-------------------------------|-0-------------------------------|
|---------------------------------|---------------------------------|
|---------------------------------|---------------------------------|


  E   E   E   E   E   E   E   E     E   E   E   E   E   E   E   E
|---------5-------7-------5-------|---------0---------------2-------|
|-----5-------5-------5-------5---|-----1-------1-------4-------4---|
|-6-------------------------------|-0---------------4---------------|
|---------------------------------|---------------------------------|
|---------------------------------|---------------------------------|
|---------------------------------|---------------------------------|
|
| PM--------------------------------------------------------------|
| S S S S S S S S S S S S S S S S   S S S S S S S S S S S S S S S S
|---------------------------------|---------------------------------|
|---------2-------3-------2-------|---------1---------------0-------|
|-----2-----2---2---2---2---2---2-|-----0-----0---0-----2-----2---2-|
|---2---2-----2-------2-------2---|---2---2-----2-----1---1-----1---|
|-4-------------------------------|-3---------------2---------------|
|---------------------------------|---------------------------------|


  E   E   E   E   E   E   E   E     E   E   E   E   E   E   E   E
|---------3-------5-------3-------|---------7-------7-------5-------|
|-----5-------5-------5-------5---|-----4-------4-------4-------4---|
|-4-------------------------------|-4-------------------------------|
|---------------------------------|---------------------------------|
|---------------------------------|---------------------------------|
|---------------------------------|---------------------------------|
|
| PM--------------------------------------------------------------|
| S S S S S S S S S S S S S S S S   S S S S S S S S S S S S S S S S
|---------0-------2-------0-------|---------2-------3-------2-------|
|-----0-----0---0---0---0---0---0-|-----0-----0---0---0---0---0---0-|
|---0---0-----0-------0-------0---|---2---2-----2-------2-------2---|
|-2-------------------------------|-1-------------------------------|
|---------------------------------|---------------------------------|
|---------------------------------|---------------------------------|


  E   E   E   E   E   E   E   E     E   E   E   E   H
|---------5---------------7-------|---------3-------3----||
|-----7-------7-------7-------7---|-----5-------5---5----||
|-7---------------8---------------|-4---------------4----||
|---------------------------------|----------------------||
|---------------------------------|----------------------||
|---------------------------------|----------------------||
|
| S S S S S S S S S S S S S S S S   S S S S S S S S H
|---------2---------------2-------|---------0------------||
|-----3-----3---------0-----0-----|-----0-----0---0-0----||
|---2---2-----2-----2---2-----2---|---0---0-----0---0----||
|-0-------------0-1-------------1-|-2---------------0----||
|---------------------------------|-----------------2----||
|---------------------------------|----------------------||


 Distortion Enters (3:00)
  Gtr III
   E.  S  H     +E   S  S    E.  S  H     +E   E
|-------------------------|----------------------|
|-------------------------|----------------------|
|-11--12------------11-12-|-14--12-11----(11)----|
|--------14----(14)-------|----------------------|
|-------------------------|-------------------14-|
|-------------------------|----------------------|
|
| Gtr IV
|  W                         W
|-------------------------|----------------------|
|-------------------------|----------------------|
|-------------------------|----------------------|
|-------------------------|----------------------|
|-------------------------|----------------------|
|-------------------------|----------------------|
|
| Gtr V
|  E.  S  H     +E   S  S    E.  S  H     +E   E
|-------------------------|----------------------|
|-------------------------|----------------------|
|-------------------------|-11-------------------|
|-12--14------------12-14-|-----14-12----(12)----|
|--------14----(14)-------|----------------------|
|-------------------------|-------------------15-|


   E.  S  H     +S   E  S    H..        S  S
|-------------------------|-------------------|
|-------------------------|-------------------|
|-11--12------------14-12-|-11----------------|
|--------14----(14)-------|-------------------|
|-------------------------|------------14-14--|
|-------------------------|-------------------|
|
|  W                         H..        S  S
|-------------------------|-------------------|
|-------------------------|-------------------|
|-------------------------|-------------------|
|-------------------------|-------------------|
|-------------------------|-------------2--2--|
|-------------------------|-------------------|
|
|  E.  S  H     +S   E  S    H..        S  S
|-------------------------|-------------------|
|-------------------------|-------------------|
|-------------------11----|-------------------|
|-12--14---------------14-|-13----------------|
|--------15----(15)-------|-------------------|
|-------------------------|------------14-14--|


   E.  S  H     +E   S  S    E.  S  H     +E   E
|-------------------------|----------------------|
|-------------------------|----------------------|
|-11--12------------11-12-|-14--12-11----(11)----|
|--------14----(14)-------|----------------------|
|-------------------------|-------------------14-|
|-------------------------|----------------------|
|
|  E.  S  H     +E   S  S    E.  S  H     +E   E
|-------------------------|----------------------|
|-------------------------|----------------------|
|-------------------------|----------------------|
|--0---2-------------0--2-|--4---2--0-----(0)----|
|---------2-----(2)-------|----------------------|
|-------------------------|--------------------3-|
|
|  E.  S  H     +E   S  S    E.  S  H     +E   E
|-------------------------|----------------------|
|-------------------------|----------------------|
|-------------------------|-11-------------------|
|-12--14------------12-14-|-----14-12----(12)----|
|--------14----(14)-------|----------------------|
|-------------------------|-------------------15-|


   E.  S  H     +S   E  S    H     Q   Q
|-------------------------|-----------------|
|-------------------------|-----------------|
|-11--12------------14-12-|-11----12--14----|
|--------14----(14)-------|-----------------|
|-------------------------|-----------------|
|-------------------------|-----------------|
|
|  E.  S  H     +S   E  S    H     Q   Q
|-------------------------|-----------------|
|-------------------------|-----------------|
|-------------------------|-----------------|
|--0---2-------------4--2-|--1-----2---4----|
|---------3-----(3)-------|-----------------|
|-------------------------|-----------------|
|
|  E.  S  H     +S   E  S    H     Q   Q
|-------------------------|-----------------|
|-------------------------|-----------------|
|-------------------11----|-----------11----|
|-12--14---------------14-|-13----14--------|
|--------15----(15)-------|-----------------|
|-------------------------|-----------------|


   Q.      E  E.    E  E  S
|------------------------------|
|---------12-15b17-15----12b13r|
|-14b16---------------14-------|
|------------------------------|
|------------------------------|
|------------------------------|
|
|  H          H
|------------------------------|
|------------------------------|
|------------------------------|
|--5----------7----------------|
|--3----------5----------------|
|------------------------------|
|
|  Q.      E  E.    E  E  S
|------------------------------|
|------------------------------|
|-11b12---12-14b16-14-11-12b14r|
|------------------------------|
|------------------------------|
|------------------------------|


   +H.          +S   E  S    Q.      E  E.  E.    E
|-------------------------|---------12-14--14b15-14--||
|-(12)---------(12)-------|--------------------------||
|-------------------12-14-|-14b16--------------------||
|-------------------------|--------------------------||
|-------------------------|--------------------------||
|-------------------------|--------------------------||
|
|   H     E. E       E  S    H          H
|-------------------------|--------------------------||
|-------------------------|--------------------------||
|-------------------------|--------------------------||
|---9-----5--4------------|--5----------7------------||
|---7----------------7--5-|--3----------5------------||
|-------------------------|--------------------------||
|
|  +H.          +S   E  S    Q.      E  E.  E.    E
|-------------------------|--------------------------||
|-------------------------|---------13-15--15b17-15--||
|-(12)---------(12)----11-|-11b12--------------------||
|-------------------14----|--------------------------||
|-------------------------|--------------------------||
|-------------------------|--------------------------||


  Q=176
   W                           +W
|-14b15---------------------|-(14)----------------------|
|---------------------------|---------------------------|
|---------------------------|---------------------------|
|---------------------------|---------------------------|
|---------------------------|---------------------------|
|---------------------------|---------------------------|
|
|       PM----------|   PM      PM-------------|   PM
|  E    S S S S S S E E E E     E  S S S S S S E E E  E
|---------------------------|---------------------------|
|---------------------------|---------------------------|
|---------------------------|---------------------------|
|--5------------------5---7-|--------------------7----9-|
|--7------------------7---9-|--------------------9---10-|
|-------0-0-0-0-0-0-0---0---|---0--0-0-0-0-0-0-0---0----|
|
|  W                           +W
|---------------------------|---------------------------|
|-15b17---------------------|-(15)----------------------|
|---------------------------|---------------------------|
|---------------------------|---------------------------|
|---------------------------|---------------------------|
|---------------------------|---------------------------|


   +W                           +W
|-(14)-----------------------|-(14)--------------------------------|
|----------------------------|-------------------------------------|
|----------------------------|-------------------------------------|
|----------------------------|-------------------------------------|
|----------------------------|-------------------------------------|
|----------------------------|-------------------------------------|
|
|   PM-------------|    PM       PM---------------------------|
|   E  S S S S S S E  E E  E     E  S S S S S S S S S S S S S S
|----------------------------|-------------------------------------|
|----------------------------|-------------------------------------|
|----------------------------|-------------------------------------|
|---------------------9----9-|-------------------------------------|
|--------------------10---10-|-------------------------------------|
|---0--0-0-0-0-0-0-0----0----|---0--0-0-0-0-0-0-0-0-0-0-0-0-0-0----|
|
|  +W                           +W
|----------------------------|-------------------------------------|
|-(15)-----------------------|-(15)--------------------------------|
|----------------------------|-------------------------------------|
|----------------------------|-------------------------------------|
|----------------------------|-------------------------------------|
|----------------------------|-------------------------------------|


  Gtr IV
    PM----------|   PM    PM------------|   PM
  E S S S S S S E E E E   E S S S S S S E E E  E
|-----------------------|------------------------|
|-----------------------|------------------------|
|-----------------------|------------------------|
|-5---------------5---7-|-----------------7----9-|
|-7---------------7---9-|-----------------9---10-|
|---0-0-0-0-0-0-0---0---|-0-0-0-0-0-0-0-0---0----|


  PM------------|    PM     PM--------------------------|
  E S S S S S S E  E E  E   E S S S S S S S S S S S S S S
|-------------------------|----------------------------------||
|-------------------------|----------------------------------||
|-------------------------|----------------------------------||
|------------------9----9-|----------------------------------||
|-----------------10---10-|----------------------------------||
|-0-0-0-0-0-0-0-0----0----|-0-0-0-0-0-0-0-0-0-0-0-0-0-0-0----||


  Gtr III
   E  E  E    E    E  E  E    E      E  E  E    E    E  E  E    E
|---------------------------------|---------------------------------|
|-13-12----------------------13---|-13-12----------------------13---|
|-------14---12---11-12-14--------|-------14---12---11-12-14--------|
|---------------------------------|---------------------------------|
|---------------------------------|---------------------------------|
|---------------------------------|---------------------------------|
|
| Gtr IV
|     PM----------------------------------------------------------|
|  E  E  S S  S S  E  E  S S  S S    E  E  S S  S S  E  E  S S  S S
|---------------------------------|---------------------------------|
|---------------------------------|---------------------------------|
|---------------------------------|---------------------------------|
|--7--7--7-7--7-7--7--7--7-7--7-7-|--7--7--7-7--7-7--7--7--7-7--7-7-|
|--5--5--5-5--5-5--5--5--5-5--5-5-|--5--5--5-5--5-5--5--5--5-5--5-5-|
|---------------------------------|---------------------------------|
|
| Gtr V
|  E  E  E    E    E  E  E    E      E  E  E    E    E  E  E    E
|---------------------------------|---------------------------------|
|---------------------------------|---------------------------------|
|-14-12-11--------------11---12---|-14-12-11--------------11---12---|
|------------14---12-14-----------|------------14---12-14-----------|
|---------------------------------|---------------------------------|
|---------------------------------|---------------------------------|


   W                        +W
|------------------------|------------------------------------|
|-12---------------------|-(12)-------------------------------|
|------------------------|------------------------------------|
|------------------------|------------------------------------|
|------------------------|------------------------------------|
|------------------------|------------------------------------|
|
|    PM----------|   PM      PM-----|    PM----------------|
|  E S S S S S S E E E E     S  S S S  E S S S S S S S S S S
|------------------------|------------------------------------|
|------------------------|------------------------------------|
|------------------------|------------------------------------|
|--5---------------5---7-|-------------9----------------------|
|--7---------------7---9-|------------10----------------------|
|----0-0-0-0-0-0-0---0---|---0--0-0-0----0-0-0-0-0-0-0-0-0-0--|
|
|  W                        +W
|------------------------|------------------------------------|
|------------------------|------------------------------------|
|-12---------------------|-(12)-------------------------------|
|------------------------|------------------------------------|
|------------------------|------------------------------------|
|------------------------|------------------------------------|


   E  E  E    E    E  E  E    E      E  E  E    E    E  E  E    E
|---------------------------------|---------------------------------|
|-13-12----------------------12---|-13-12----------------------13---|
|-------14---12---11-12-14--------|-------14---12---11-12-14--------|
|---------------------------------|---------------------------------|
|---------------------------------|---------------------------------|
|---------------------------------|---------------------------------|
|
|     PM----------------------------------------------------------|
|  E  E  S S  S S  E  E  S S  S S    E  E  S S  S S  E  E  S S  S S
|---------------------------------|---------------------------------|
|---------------------------------|---------------------------------|
|---------------------------------|---------------------------------|
|--7--7--7-7--7-7--7--7--7-7--7-7-|--7--7--7-7--7-7--7--7--7-7--7-7-|
|--5--5--5-5--5-5--5--5--5-5--5-5-|--5--5--5-5--5-5--5--5--5-5--5-5-|
|---------------------------------|---------------------------------|
|
|  E  E  E    E    E  E  E    E      E  E  E    E    E  E  E    E
|---------------------------------|---------------------------------|
|---------------------------------|---------------------------------|
|-14-12-11--------------11---12---|-14-12-11--------------11---14---|
|------------14---12-14-----------|------------14---12-14-----------|
|---------------------------------|---------------------------------|
|---------------------------------|---------------------------------|


   W           Q.    Q.    Q
|-----------|-12----14----12b13---||
|-15--------|---------------------||
|-----------|---------------------||
|-----------|---------------------||
|-----------|---------------------||
|-----------|---------------------||
|
|  W           W
|-----------|---------------------||
|-----------|---------------------||
|-----------|---------------------||
|--5--------|--7------------------||
|--3--------|--5------------------||
|-----------|---------------------||
|
|  W           Q.    Q.    Q
|-----------|---------------------||
|-12--------|-13----15----15b17---||
|-----------|---------------------||
|-----------|---------------------||
|-----------|---------------------||
|-----------|---------------------||


   Q.          E    +H               +W
|-14----------12---(12)-----------|-(12)-------------------------|
|---------------------------------|------------------------------|
|---------------------------------|------------------------------|
|---------------------------------|------------------------------|
|---------------------------------|------------------------------|
|---------------------------------|------------------------------|
|
|  PM-----|    PM-------|   PM|       PM-----|   PM----|   PM|
|  S  S S S E  S S   S  S E S S E     S  S S S E S S S S E S S E
|---------------------------------|------------------------------|
|---------------------------------|------------------------------|
|---------------------------------|------------------------------|
|---------------------------------|------------------------------|
|-----------5-------------5-----7-|------------5---------5-----7-|
|--0--0-0-0-3--0-0---0--0-3-0-0-5-|---0--0-0-0-3-0-0-0-0-3-0-0-5-|
|
|  Q.          E    +H               +W
|---------------------------------|------------------------------|
|-15----------12---(12)-----------|-(12)-------------------------|
|---------------------------------|------------------------------|
|---------------------------------|------------------------------|
|---------------------------------|------------------------------|
|---------------------------------|------------------------------|


   +W                            W
|-(12)-------------------------|---------------|
|------------------------------|---------------|
|------------------------------|---------------|
|------------------------------|---------------|
|------------------------------|---------------|
|------------------------------|---------------|
|
|   PM-----|   PM----|   PM|
|   S  S S S E S S S S E S S E   E Q  E E Q  E
|------------------------------|---------------|
|------------------------------|---------------|
|------------------------------|---------------|
|------------------------------|---4--4-5-4--5-|
|------------5---------5-----7-|---5--5-5-5--5-|
|---0--0-0-0-3-0-0-0-0-3-0-0-5-|---------------|
|
|  +W                            W
|------------------------------|---------------|
|-(12)-------------------------|---------------|
|------------------------------|---------------|
|------------------------------|---------------|
|------------------------------|---------------|
|------------------------------|---------------|


  Gtr IV
  PM----|   PM----|   PM|     PM----|   PM----|   PM|
  S S S S E S S S S E S S E   S S S S E S S S S E S S E
|---------------------------|---------------------------|
|---------------------------|---------------------------|
|---------------------------|---------------------------|
|---------------------------|---------------------------|
|---------5---------5-----7-|---------5---------5-----7-|
|-0-0-0-0-3-0-0-0-0-3-0-0-5-|-0-0-0-0-3-0-0-0-0-3-0-0-5-|


  PM----|   PM----|   PM|
  S S S S E S S S S E S S E   E Q  E E Q  E
|---------------------------|---------------|
|---------------------------|---------------|
|---------------------------|---------------|
|---------------------------|---4--4-5-4--5-|
|---------5---------5-----7-|---5--5-5-5--5-|
|-0-0-0-0-3-0-0-0-0-3-0-0-5-|---------------|


  Gtr III
   E E E Q  E E  E    E E E Q  E E  E   W                           W
|--------8---------|--------8---------|---------------------------|-------||
|------8----8------|------8----8------|---------------------------|-------||
|----9--------9----|----9--------9----|---------------------------|-------||
|-10------------10-|-10------------10-|---------------------------|-------||
|------------------|------------------|---------------------------|-------||
|------------------|------------------|---------------------------|-------||
|
| Gtr IV
|                                                                   \3
|                                       PM----|   PM----|   PM|
|  W                  W                 S S S S E S S S S E S S E   W
|------------------|------------------|---------------------------|-------||
|------------------|------------------|---------------------------|-------||
|------------------|------------------|---------------------------|-------||
|--5---------------|--7---------------|---------------------------|-------||
|--3---------------|--5---------------|---------5---------5-----7-|-2-----||
|------------------|------------------|-0-0-0-0-3-0-0-0-0-3-0-0-5-|-0-----||


 Voices (4:12)
  Gtrs III, IV
  PM----------------------------------------------|
  E E S S S S E E S S S S   E E S S S S E E S S S S
|-------------------------|-------------------------|
|-------------------------|-------------------------|
|-------------------------|-------------------------|
|-------------------------|-------------------------|
|-2-2-2-2-2-2-2-2-2-2-2-2-|-2-2-2-2-2-2-2-2-2-2-2-2-|
|-0-0-0-0-0-0-0-0-0-0-0-0-|-0-0-0-0-0-0-0-0-0-0-0-0-|


  PM----------------------------------------------|
  E E S S S S E E S S S S   E E S S S S E E S S S S
|-------------------------|-------------------------|
|-------------------------|-------------------------|
|-------------------------|-------------------------|
|-------------------------|-------------------------|
|-5-5-5-5-5-5-5-5-5-5-5-5-|-5-5-5-5-5-5-5-5-5-5-5-5-|
|-3-3-3-3-3-3-3-3-3-3-3-3-|-3-3-3-3-3-3-3-3-3-3-3-3-|


  PM----------------------------------------------|
  E E S S S S E E S S S S   E E S S S S E E S S S S
|-------------------------|-------------------------|
|-------------------------|-------------------------|
|-------------------------|-------------------------|
|-7-7-7-7-7-7-7-7-7-7-7-7-|-7-7-7-7-7-7-7-7-7-7-7-7-|
|-5-5-5-5-5-5-5-5-5-5-5-5-|-5-5-5-5-5-5-5-5-5-5-5-5-|
|-------------------------|-------------------------|


  PM------------|         PM------|
  E E S S S S E E Q     E E E E E E E E
|---------------------|-----------------|
|---------------------|-----------------|
|---------------------|-----------------|
|-9-9-9-9-9-9-9-9-9\--|-------------5-4-|
|-7-7-7-7-7-7-7-7-7\--|-----------------|
|---------------------|---3-2-3-5-3-----|


  PM----------------------------------------------|
  E E S S S S E E S S S S   E E S S S S E E S S S S
|-------------------------|-------------------------|
|-------------------------|-------------------------|
|-------------------------|-------------------------|
|-------------------------|-------------------------|
|-2-2-2-2-2-2-2-2-2-2-2-2-|-2-2-2-2-2-2-2-2-2-2-2-2-|
|-0-0-0-0-0-0-0-0-0-0-0-0-|-0-0-0-0-0-0-0-0-0-0-0-0-|


                              PM------------------|
  W          Q.   Q.   Q    E E S S S S E E S S S S
|----------|--------------|-------------------------|
|----------|--------------|-------------------------|
|----------|--------------|-------------------------|
|-5--------|-2----4----5--|-4-4-4-4-4-4-4-4-4-4-4-4-|
|-3--------|--------------|-------------------------|
|----------|--------------|-------------------------|
|
| Gtr IV
|                             PM------------------|
| W          Q.   Q.   Q    E E S S S S E E S S S S
|----------|--------------|-------------------------|
|----------|--------------|-------------------------|
|----------|--------------|-------------------------|
|-5--------|--------------|-------------------------|
|-3--------|-3----5----7--|-5-5-5-5-5-5-5-5-5-5-5-5-|
|----------|--------------|-------------------------|


  PM----------------|     PM----------------------|   PM|
  E E S S S S E E E E   E E S S S S E E S S S S   E E E E q  q
|---------------------|-------------------------|----------------||
|---------------------|-------------------------|----------------||
|---------------------|-------------------------|----------------||
|-4-4-4-4-4-4-4---4-7-|-5-5-5-5-5-5-5-5-5-5-5-5-|---5-----5--4---||
|---------------6-----|-------------------------|----------------||
|---------------------|-------------------------|-0---0-0--------||
|
| PM----------------|     PM----------------------|   PM|
| E E S S S S E E E E   E E S S S S E E S S S S   E E E E q  q
|---------------------|-------------------------|----------------||
|---------------------|-------------------------|----------------||
|---------------------|-------------------------|----------------||
|---------------------|-------------------------|----------------||
|-6-6-6-6-6-6-6---6-9-|-7-7-7-7-7-7-7-7-7-7-7-7-|---7-----7--5---||
|---------------7-----|-------------------------|-0---0-0--------||


  W          W          W          W
|----------|----------|----------|------|
|----------|----------|----------|------|
|----------|----------|----------|------|
|-2--------|-4--------|----------|-1----|
|----------|----------|-2--------|------|
|----------|----------|----------|------|
|
| W          W          W          W
|----------|----------|----------|------|
|----------|----------|----------|------|
|----------|----------|----------|------|
|-5--------|-7--------|----------|-4----|
|-3--------|-5--------|-5--------|-2----|
|----------|----------|-3--------|------|


  PM-----------------------------------------------------------------
  S S S S S S S S S S S S S S S S   S S S S S S S S S S S S S S S S
|---------------------------------|---------------------------------|
|---------------------------------|---------------------------------|
|---------------------------------|---------------------------------|
|-2-2-2-2-5-5-5-5-4-4-4-4-2-2-2-2-|-2-2-2-2-5-5-5-5-4-4-4-4-2-2-2-2-|
|---------------------------------|---------------------------------|
|---------------------------------|---------------------------------|
|
| PM-----------------------------------------------------------------
| E   E   S S S S E   E   S S S S   E   E   S S S S E   E   S S S S
|---------------------------------|---------------------------------|
|---------------------------------|---------------------------------|
|---------------------------------|---------------------------------|
|-5---5---5-5-5-5-5---5---5-5-5-5-|-7---7---7-7-7-7-7---7---7-7-7-7-|
|-3---3---3-3-3-3-3---3---3-3-3-3-|-4---4---4-4-4-4-4---4---4-4-4-4-|
|---------------------------------|---------------------------------|


 -------------------------------------------------|
  S S S S S S S S S S S S S S S S   S S S S S S S S E Q  E
|---------------------------------|-------------------------|
|---------------------------------|-------------------------|
|---------------------------------|-------------------------|
|-4-4-4-4-7-7-7-7-5-5-5-5-4-4-4-4-|-1-1-1-1-4-4-4-4---------|
|---------------------------------|-----------------2-0--2--|
|---------------------------------|-------------------------|
|
|---------------------------------------------------|
| E   E   S S S S E   E   S S S S   E   E   S S S S E Q  E
|---------------------------------|-------------------------|
|---------------------------------|-------------------------|
|---------------------------------|-------------------------|
|-7---7---7-7-7-7-7---7---7-7-7-7-|-4---4---4-4-4-4-4-------|
|-5---5---5-5-5-5-5---5---5-5-5-5-|-2---2---2-2-2-2-2-0--2--|
|---------------------------------|-------------------------|


  W          W          W          W          W          W
|----------|----------|----------|----------|----------|------||
|----------|----------|----------|----------|----------|------||
|----------|----------|----------|----------|----------|------||
|-2--------|-4--------|----------|-1--------|-2--------|-4----||
|----------|----------|-2--------|----------|----------|------||
|----------|----------|----------|----------|----------|------||
|
| W          W          W          W          W          W
|----------|----------|----------|----------|----------|------||
|----------|----------|----------|----------|----------|------||
|----------|----------|----------|----------|----------|------||
|-5--------|-7--------|----------|-4--------|-5--------|-7----||
|-3--------|-5--------|-5--------|-2--------|-3--------|-5----||
|----------|----------|-3--------|----------|----------|------||


  Gtrs III, IV
  PM----|   PM----|   PM|     PM----|   PM----|   PM|
  S S S S E S S S S E S S E   S S S S E S S S S E S S  E
|---------------------------|----------------------------|
|---------------------------|----------------------------|
|---------------------------|----------------------------|
|---------5---------5-----7-|---------7---------7------9-|
|---------7---------7-----9-|---------9---------9-----10-|
|-0-0-0-0---0-0-0-0---0-0---|-0-0-0-0---0-0-0-0---0-0----|


  PM----|    PM----|    PM|      PM----|    PM----|    PM|
  S S S S  E S S S S  E S S  E   S S S S  E S S S S  E S S  E
|------------------------------|---------------------------------|
|------------------------------|---------------------------------|
|------------------------------|---------------------------------|
|----------9----------9------9-|----------9----------9------9----|
|---------10---------10-----10-|---------10---------10-----10----|
|-0-0-0-0----0-0-0-0----0-0----|-0-0-0-0----0-0-0-0----0-0-------|


  PM----|   PM----|   PM|     PM----|   PM----|   PM|
  S S S S E S S S S E S S E   S S S S E S S S S E S S  E
|---------------------------|----------------------------|
|---------------------------|----------------------------|
|---------------------------|----------------------------|
|---------5---------5-----7-|---------7---------7------9-|
|---------7---------7-----9-|---------9---------9-----10-|
|-0-0-0-0---0-0-0-0---0-0---|-0-0-0-0---0-0-0-0---0-0----|


  PM----|    PM----|    PM|      PM----|    PM----|    PM----|
  S S S S  E S S S S  E S S  E   S S S S  E S S S S  E S S S S
|------------------------------|----------------------------------||
|------------------------------|----------------------------------||
|------------------------------|----------------------------------||
|----------9----------9------9-|----------9----------9------------||
|---------10---------10-----10-|---------10---------10------------||
|-0-0-0-0----0-0-0-0----0-0----|-0-0-0-0----0-0-0-0----0-0-0-0----||


 5:03
   E  E  E  E  E  E  E  E     E   E  E  E  E  E  E  E
|-12----------------------|--12-----------------------|
|----15-13-12----12-13-15-|------15-13-12----12-13-15-|
|-------------14----------|---------------14----------|
|-------------------------|---------------------------|
|-------------------------|---------------------------|
|-------------------------|---------------------------|
|
| Gtr IV
|  W                         +W
|-------------------------|---------------------------|
|-------------------------|---------------------------|
|-------------------------|---------------------------|
|-10----------------------|-(10)----------------------|
|--8----------------------|--(8)----------------------|
|-------------------------|---------------------------|
|
| Gtr V
|  E  E  E  E  E  E  E  E     E   E  E  E  E  E  E  E
|-------------------------|---------------------------|
|-13-12----------------12-|--13--12----------------12-|
|-------14-12----12-14----|---------14-12----12-14----|
|-------------15----------|---------------15----------|
|-------------------------|---------------------------|
|-------------------------|---------------------------|


   W                          +W
|--------------------------|-------------------------------|
|-12-----------------------|-(12)--------------------------|
|--------------------------|-------------------------------|
|--------------------------|-------------------------------|
|--------------------------|-------------------------------|
|--------------------------|-------------------------------|
|
|    PM|   PM----|   PM|       PM-----|   PM----|   PM|
|  E S S E S S S S E S S E     S  S S S E S S S S E S S  E
|--------------------------|-------------------------------|
|--------------------------|-------------------------------|
|--------------------------|-------------------------------|
|--6-----6---------6-----7-|------------7---------7------9-|
|--7-----7---------7-----8-|------------8---------8-----11-|
|----0-0---0-0-0-0---0-0---|---0--0-0-0---0-0-0-0---0-0----|
|
|  W                          +W
|--------------------------|-------------------------------|
|--------------------------|-------------------------------|
|-13-----------------------|-(13)--------------------------|
|--------------------------|-------------------------------|
|--------------------------|-------------------------------|
|--------------------------|-------------------------------|


   +W
|---------------------------------|
|-(12)----------------------------|
|---------------------------------|
|---------------------------------|
|---------------------------------|
|---------------------------------|
|
|   PM-----|    PM----|    PM|
|   S  S S S  E S S S S  E S S  E
|---------------------------------|
|---------------------------------|
|---------------------------------|
|-------------9----------9------9-|
|------------11---------11-----11-|
|---0--0-0-0----0-0-0-0----0-0----|
|
|  +W
|---------------------------------|
|---------------------------------|
|-(13)----------------------------|
|---------------------------------|
|---------------------------------|
|---------------------------------|


   +W                                 E  E  E  E  E  E  E  E
|----------------------------------|-12----------------------|
|-(12)-----------------------------|----15-13-12----12-13-15-|
|----------------------------------|-------------14----------|
|----------------------------------|-------------------------|
|----------------------------------|-------------------------|
|----------------------------------|-------------------------|
|
|   PM-----|    PM----|    PM----|
|   S  S S S  E S S S S  E S S S S    W
|----------------------------------|-------------------------|
|----------------------------------|-------------------------|
|----------------------------------|-------------------------|
|-------------9----------9---------|-10----------------------|
|------------11---------11---------|--8----------------------|
|---0--0-0-0----0-0-0-0----0-0-0-0-|-------------------------|
|
|  +W                                 E  E  E  E  E  E  E  E
|----------------------------------|-------------------------|
|----------------------------------|-13-12----------------12-|
|-(13)-----------------------------|-------14-12----12-14----|
|----------------------------------|-------------15----------|
|----------------------------------|-------------------------|
|----------------------------------|-------------------------|


    E   E  E  E  E  E  E  E    W            W
|--12--------------------12-|-13--------|--13b15----||
|------15-13-12----12-13----|-----------|-----------||
|---------------14----------|-----------|-----------||
|---------------------------|-----------|-----------||
|---------------------------|-----------|-----------||
|---------------------------|-----------|-----------||
|
|  +H            H             W           +W
|---------------------------|-----------|-----------||
|---------------------------|-----------|-----------||
|---------------------------|-----------|-----------||
|-(10)----------10----------|-12--------|-(12)------||
|--(8)-----------8----------|-10--------|-(10)------||
|---------------------------|-----------|-----------||
|
|   E   E  E  E  E  E  E  E    W            W
|---------------------------|-----------|-----------||
|--13--12----------------13-|-15--------|--15b17----||
|---------14-12----12-14----|-----------|-----------||
|---------------15----------|-----------|-----------||
|---------------------------|-----------|-----------||
|---------------------------|-----------|-----------||


  W          W          W          Q.   Q.   Q
|----------|----------|----------|--------------|
|----------|----------|----------|--------------|
|----------|----------|----------|-5----4-------|
|----------|-5--------|-7--------|-----------5--|
|-7--------|----------|----------|--------------|
|----------|----------|----------|--------------|
|
| W          W          W          W
|----------|----------|----------|--------------|
|----------|----------|----------|--------------|
|----------|----------|----------|--------------|
|-5--------|-5--------|-2--------|--------------|
|-3--------|-2--------|-0--------|-2------------|
|----------|----------|----------|-0------------|


  W          W          W          W
|----------|----------|----------|------|
|----------|----------|----------|------|
|----------|----------|----------|------|
|----------|-7--------|----------|------|
|-8--------|----------|----------|------|
|----------|----------|-8--------|-7----|
|
| W          W          W          W
|----------|----------|----------|------|
|----------|----------|----------|------|
|----------|----------|----------|------|
|----------|----------|----------|------|
|-3--------|-3--------|-5--------|-5----|
|-1--------|-1--------|-3--------|-3----|


  W          W          W          Q.   Q.   Q
|----------|----------|----------|--------------|
|----------|----------|----------|--------------|
|----------|----------|----------|-5----4-------|
|----------|-5--------|-7--------|-----------5--|
|-7--------|----------|----------|--------------|
|----------|----------|----------|--------------|
|
| W          W          W          W
|----------|----------|----------|--------------|
|----------|----------|----------|--------------|
|----------|----------|----------|--------------|
|-5--------|-5--------|-2--------|--------------|
|-3--------|-2--------|-0--------|-2------------|
|----------|----------|----------|-0------------|


  W          W          W          W
|----------|----------|----------|------||
|----------|----------|----------|------||
|----------|----------|----------|-4----||
|----------|-7--------|-5--------|------||
|-8--------|----------|----------|------||
|----------|----------|----------|------||
|
| W          W          W          W
|----------|----------|----------|------||
|----------|----------|----------|------||
|----------|----------|----------|------||
|----------|----------|----------|------||
|-3--------|-3--------|-5--------|-7----||
|-1--------|-1--------|-3--------|-4----||


  E E E E E E E E    E  E E E E E E E   E E E E E E E E    E  E E E E E E E
|-8-7-5---8-7-5---|--8--7-5---8-7-5---|-8-7-5---8-7-5---|--8--7-5---8-7-5---|
|-------5-------5-|---------5-------5-|-------6-------6-|---------6-------6-|
|-----------------|-------------------|-----------------|-------------------|
|-----------------|-------------------|-----------------|-------------------|
|-----------------|-------------------|-----------------|-------------------|
|-----------------|-------------------|-----------------|-------------------|
|
| W                 +W                  W                 +W
|-----------------|-------------------|-----------------|-------------------|
|-----------------|-------------------|-----------------|-------------------|
|-----------------|-------------------|-----------------|-------------------|
|-----------------|-------------------|-----------------|-------------------|
|-7---------------|-(7)---------------|-3---------------|-(3)---------------|
|-5---------------|-(5)---------------|-1---------------|-(1)---------------|


   E E E E  E E E E    E  E E E  E E E E
|-10-8-7---10-8-7---|-10--8-7---10-8-7---|
|--------8--------8-|---------8--------8-|
|-------------------|--------------------|
|-------------------|--------------------|
|-------------------|--------------------|
|-------------------|--------------------|
|
|  W                  +W
|-------------------|--------------------|
|-------------------|--------------------|
|-------------------|--------------------|
|-------------------|--------------------|
|--5----------------|-(5)----------------|
|--3----------------|-(3)----------------|


   E  E E E  E  E E E    E  E  E  E  E  E  E  E
|-12-10-8---12-10-8---|-12----------12----------|
|---------8---------8-|----15-12-------15-12-





Comments


Popular X Japan tabs & chords
20th Century Boy Bass Tabs
Art Of Life 2 Bass Tabs
Ill Kill You Bass Tabs
Longing Bass Tabs
Tears 1 Chords
Unfinished Chords
Blue Blood Tabs
Easy Fight Rambling Tabs
Tears 2 Tabs
Tears Ukulele


Song lyrics



↑ Back to top | Tablatures and chords are parodies/interpretations of the original songs. You may use it for private study, scholarship, research or language learning purposes only
© 2014 AZChords.com Contact us | Privacy policy | DMCA | Add/correct tabs | Request tabs | Top 50 tabs