» » »

Dope Nose Bass tabs (ver.1)

Artists:  A B C D E F G H I J K L M N O P Q R S T U V W X Y Z # 

Dope Nose Bass tabs (ver.1)

Weezer
Rating:
0/5 (0 votes)

Hard to play? Try these video lessons and learn fast.
                (2)
Intro 
G---------------------
D---------------------
A-1x111--1x11-------6--
E------------------6x66---

Bridge 1
G-----------------------------
D-----------------------------
A-1x111--1x111--1x111--1x111--    
E-----------------------------

Verse 
G-----------------------------
D-----------------------------
A-1x111--1x111-------1--1x111--
E-------------------1x11----------

Chorus
G---------------------------------------
D---------------------------------------
A--1---11-33333333-1111-1111--33333333--
E---------------------------------------

Bridge 2
G------------
D------------
A--44444444--
E------------

Solo 
G----------------------------
D-----------------------------
A-1x111—1x111--------1—1x111-
E--------------------1x111------

Outro
G-----------------
D-----------------
A--1---1---11-----
E-----1---1----1\--

And the order is : 
Intro
Bridge 1
Verse
Chorus
Bridge 1
Verse 
Chorus
Bridge 2
Bridge 1
Solo
Chorus
Bridge 2
Outro
            
Hard to play? Try these video lessons and learn fast. | Correct




comments powered by Disqus
↑ Back to top | Tablatures and chords are parodies/interpretations of the original songs. You may use it for private study, scholarship, research or language learning purposes only