» » »

Weezer, Dope Nose Chords (ver.1)

Artists:  A B C D E F G H I J K L M N O P Q R S T U V W X Y Z # 

Dope Nose Chords (ver.1)

Weezer Tabs
 Rating:
4/5 (4 votes)
Dope Nose lessons Tabs too difficult? Try these video lessons and learn fast
                
This is a sweet new song from weezer. Weezers New Record Maladroit is 
going to kick ass! 

Chords
A#- 6 8 8 X X X
D#- X 6 8 8 X X
F2 (Eb) - X 8 10 10 X X 
F1- 1 3 3 X X X

A#    A#   D#     A#   D#     A#   D#
Whoa, whoa oh oh, whoa oh oh, whoa oh oh!

A#
Dead
A# D# A#
On my head
A# D#   F2
Wasting time
F2  D# A#  
On my own
A#
Sleep
A# D#  A#
Rescue me
A#   D# F2
Take me back
      A#
To my home


D#      A#   F1
All the times, that you wanna go and
D#     A#          F2
  Bust rhymes real slow
D#    A#   F1
I'll appear, slap you on the face and
D#  A#      F2
  Enjoy the show

A#    A#   D#     A#   D#     A#   D#
Whoa, whoa oh oh, whoa oh oh, whoa oh oh!



Cheese smells so good
On a burnt piece of lamb
Fact of the year
Who could beat up your man?

For the times that you wanna go and
Bust rhymes real slow
I'll appear, slap you on the face and
Enjoy the show

F#
Oh, this dope nose (knows?)

Solo

For the times that you wanna go and
Bust rhymes real slow
I'll appear, slap you on the face and
Enjoy the show

Oh, this dope nose

A#    A#   D#     A#   D#     A#   D#
Whoa, whoa oh oh, whoa oh oh, whoa oh oh!

Solo:(i am not too sure about the solo)
     (someone else tabbed the solo)

e|---------------------------------------------------------------------------|
B|--11p9----9--------------------------------------------------9-------------|
G|-------10---10-8-10--8-6-8-6----8-6---6----------------6--10---10-8-8-7-7--|
D|-----------------------------8------8---8-6-8------6-8---------------------|
A|-----------------------------------------------6-8-------------------------|
E|---------------------------------------------------------------------------|

e|----------------------------------16-15-15--16p15p13h15h16-(etc)--18-------|
B|----------------------------------------------------------------------15---|
G|--15-13-13-12-12--16-15-15-13-13--------------------------------------15---|
D|---------------------------------------------------------------------------|
A|---------------------------------------------------------------------------|
E|---------------------------------------------------------------------------|

Alternate solo

e---------------------------------------------
b---------------------------------------------
g--15h13--13----------------------------------
d-------15--15-13-15h13--11-13-11-------------
a--------------------------------13-----------
E---------------------------------------------



e---------------------------------------------
b---------------------------------------------
g-----------------------13--------------------
d--------------11h13/15----15-13-13-12-12-----
a--------11h13--------------------------------
E--11h13--------------------------------------




e-----------------------------------16-15-15--16h15h13-...etc--18------
b-------13-13------16--15-15--13-13------------------------------------
g--13h15-----15-15------------------------------------------------15-15
d----------------------------------------------------------------------
a----------------------------------------------------------------------
E----------------------------------------------------------------------

If you have any comments, or a better tabbed out solo. 
            
Submit corrections

comments powered by Disqus
↑ Back to top | Weezer Chords for Dope Nose. Lyrics for acoustic guitar and electric guitar. Tablatures and chords are parodies/interpretations of the original songs. You may use it for private study, scholarship, research or language learning purposes only