» » »

Weezer, Dope Nose Tabs (ver.1)

Artists:  A B C D E F G H I J K L M N O P Q R S T U V W X Y Z # 

Dope Nose Tabs (ver.1)

Weezer Tabs
 Rating:
4/5 (4 votes)
Dope Nose lessons Tabs too difficult? Try these video lessons and learn fast
1
                This is another Dope Nose tab. I thought that all the tabs for Dope
Nose that I've come across just sounded wrong and were only incorect 
in part. So I just took all the wrong ones apart and corrected them 
a bit. So this what I came up with (Ithink its rather good). I think 
you can figure out the rythems and stuff. Enjoy!


e|------------|------------|------------|------------|------------|
B|------------|------------|------------|------------|------------|
G|--------8---|------------|----8-------|--8---------|8---------8-|       
D|8-x-8-8-8-8-|x-8-8---8-x-|8-8-8-8-x-8-|8-8-8-x-8-8-|8-8-x-8-8-8-|
A|8-x-8-8-6-8-|x-8-8---8-x-|8-8-6-8-x-8-|8-6-8-x-8-8-|6-8-x-8-8-6-|
E|6-x-6-6-6-6-|x-6-6---6-x-|6-6-6-6-x-6-|6-6-6-x-6-6-|6-6-x-6-6-6-|

e|------------|------------|------------|------------|------------|
B|------------|------------|------------|------------|------------|
G|--------8---|------8-----|----8-------|--8---------|8---------8-|
D|8-x-8-8-8-8-|x-8-8-8-3-x-|3-3-8-8-x-8-|8-8-8-x-8-8-|8-8-x-8-8-8-|
A|8-x-8-8-6-8-|x-8-8-6-3-x-|3-3-6-8-x-8-|8-6-8-x-8-8-|6-8-x-8-8-6-|
E|6-x-6-6-6-6-|x-6-6-6-1-x-|1-1-6-6-x-6-|6-6-6-x-6-6-|6-6-x-6-6-6-|

e|------------|------------|------------|------------|------------|
B|------------|------------|------------|------------|------------|
G|--------8---|------8---8-|------------|----------8-|------10-10-|
D|3-x-3-3-8-8-|x-8-8-8---8-|x-8-8-3-3-3-|3-3-3-3-3-8-|x-8-8-10-10-|
A|3-x-3-3-6-8-|x-8-8-6---6-|x-8-8-3-3-3-|3-3-3-3-3-6-|x-8-8--8--8-|
E|1-x-1-1-6-6-|x-6-6-6---6-|x-6-6-1-1-1-|1-1-1-1-1-6-|x-6-6--8--8-|

e|------------|------------|------------|------------|-------------|
B|------------|------------|------------|------------|-------------|
G|10-10-10-10-|10-10-10-10-|8-----------|------------|8-------10-10|
D|10-10-10-10-|10-10-10-10-|8-x-8-8-3-3-|3-3-3-3-3-3-|8-x-8-8-10-10|
A|-8--8--8--8-|-8--8--8--8-|6-x-8-8-3-3-|3-3-3-3-3-3-|6-x-8-8--8--8|
E|-8--8--8--8-|-8--8--8--8-|6-x-6-6-1-1-|1-1-1-1-1-1-|6-x-6-6--8--8|

e|------------|------------|------------|------------|-------------|
B|------------|------------|------------|------------|-------------|
G|-10-10-10-10|-10-10------|---8--------|-8---------8|---------8---|
D|-10-10-10-10|-10-10-8-x-8|-8-8-8-x-8-8|-8-8-x-8-8-8|-8-x-8-8-8-8-|
A|--8--8--8--8|--8--8-8-x-8|-8-6-8-x-8-8|-6-8-x-8-8-6|-8-x-8-8-6-8-|
E|--8--8--8--8|--8--8-6-x-6|-6-6-6-x-6-6|-6-6-x-6-6-6|-6-x-6-6-6-6-|

e|------------|------------|------------|------------|-------------|
B|------------|------------|------------|------------|-------------|
G|------8-----|----8-------|--8---------|8---------8-|--------8----|
D|x-8-8-8-8-x-|8-8-8-3-x-3-|3-8-8-x-8-8-|8-8-x-8-8-8-|8-x-8-8-8-3-x|
A|x-8-8-6-8-x-|8-8-6-3-x-3-|3-6-8-x-8-8-|6-8-x-8-8-6-|8-x-8-8-6-3-x|
E|x-6-6-6-6-x-|6-6-6-1-x-1-|1-6-6-x-6-6-|6-6-x-6-6-6-|6-x-6-6-6-1-x|

e|------------|------------|------------|------------|--------------|
B|------------|------------|------------|------------|--------------|
G|-----8------|---8---8----|------------|-------8----|---10-10-10-10|
D|-3-3-8-8-x-8|-8-8---8-x-8|-8-3-3-3-3-3|-3-3-3-8-x-8|-8-10-10-10-10|
A|-3-3-6-8-x-8|-8-6---6-x-8|-8-3-3-3-3-3|-3-3-3-6-x-8|-8--8--8--8--8|
E|-1-1-6-6-x-6|-6-6---6-x-6|-6-1-1-1-1-1|-1-1-1-6-x-6|-6--8--8--8--8|

e|------------|------------|------------|------------|--------------|
B|------------|------------|------------|------------|--------------|
G|-10-10-10-10|-8----------|------------|-8-------10-|10-10-10-10-10|
D|-10-10-10-10|-8-x-8-8-3-3|-3-3-3-3-3-3|-8-x-8-8-10-|10-10-10-10-10|
A|--8--8--8--8|-6-x-8-8-3-3|-3-3-3-3-3-3|-6-x-8-8--8-|-8--8--8--8--8|
E|--8--8--8--8|-6-x-6-6-1-1|-1-1-1-1-1-1|-6-x-6-6--8-|-8--8--8--8--8|

e|------------|------------|------------|------------|-------------|
B|------------|------------|------------|------------|-------------|
G|-10-10-11-11|-11-11-11-11|-11-11-11-11|-11-11-11-11|-11-11-------|
D|-10-10-11-11|-11-11-11-11|-11-11-11-11|-11-11-11-11|-11-11-8-x-8-|
A|--8--8--9--9|--9--9--9--9|--9--9--9--9|--9--9--9--9|--9--9-8-x-8-|
E|--8--8--9--9|--9--9--9--9|--9--9--9--9|--9--9--9--9|--9--9-6-x-6-|

e|------------|------------|------------|------------|-------------|
B|------------|------------|------------|------------|-------------|
G|--8---------|8---------8-|--------8---|------8-----|----8--------|
D|8-8-8-x-8-8-|8-8-x-8-8-8-|8-x-8-8-8-8-|x-8-8-8-8-x-|8-8-8-3-x-3-3|
A|8-6-8-x-8-8-|6-8-x-8-8-6-|8-x-8-8-6-8-|x-8-8-6-8-x-|8-8-6-3-x-3-3|
E|6-6-6-x-6-6-|6-6-x-6-6-6-|6-x-6-6-6-6-|x-6-6-6-6-x-|6-6-6-1-x-1-1|

e|------------|------------|------------|------------|-------------|
B|------------|------------|------------|------------|-------------|
G|-8---------8|---------8--|-------8----|8-----------|-------------|
D|-8-8-x-8-8-8|-3-x-3-3-8-8|-x-8-8-8----|8-x-8-8-3-3-|3-3-3-3-3-3-3|
A|-6-8-x-8-8-6|-3-x-3-3-6-6|-x-8-8-6----|6-x-8-8-3-3-|3-3-3-3-3-3-3|
E|-6-6-x-6-6-6|-1-x-1-1-6-6|-x-6-6-6----|6-x-6-6-1-1-|1-1-1-1-1-1-1|

e|------------|------------|------------|------------|-------------|
B|------------|------------|------------|------------|-------------|
G|-8-------10-|10-10-10-10-|10-10-10-8--|------------|-----------8-|
D|-8-x-8-8-10-|10-10-10-10-|10-10-10-8-x|-8-8-3-3-3-3|-3-3-3-3-3-8-|
A|-6-x-8-8--8-|-8--8--8--8-|-8--8--8-6-x|-8-8-3-3-3-3|-3-3-3-3-3-6-|
E|-6-x-6-6--8-|-8--8--8--8-|-8--8--8-6-x|-6-6-1-1-1-1|-1-1-1-1-1-6-|

e|------------|------------|------------|------------|--------------|
B|------------|------------|------------|------------|--------------|
G|------10-10-|10-10-10-10-|10-10-10-10-|11-11-11-11-|11-11-11-11-11|
D|x-8-8-10-10-|10-10-10-10-|10-10-10-10-|11-11-11-11-|11-11-11-11-11|
A|x-8-8--8--8-|-8--8--8--8-|-8--8--8--8-|-9--9--9--9-|-9--9--9--9--9|
E|x-6-6--8--8-|-8--8--8--8-|-8--8--8--8-|-9--9--9--9-|-9--9--9--9--9|

e|------------|------------|------------|------------|-------------|
B|------------|------------|------------|------------|-------------|
G|-11-11-11-11|-11-11-11---|------8-----|----8-------|--8---------8|
D|-11-11-11-11|-11-11-11-8-|x-8-8-8-8-x-|8-8-8-8-x-8-|8-8-8-x-8-8-8|
A|--9--9--9--9|--9--9--9-8-|x-8-8-6-8-x-|8-8-6-8-x-8-|8-6-8-x-8-8-6|
E|--9--9--9--9|--9--9--9-6-|x-6-6-6-6-x-|6-6-6-6-x-6-|6-6-6-x-6-6-6|

e|-------------|
B|-------------|
G|-8---8---8---|
D|-8-8-8-8-8-8\|
A|-6-8-6-8-6-8\|
E|-6-6-6-6-6-6\|

SOLO:

e|-----------------------------------------------------------------|
B|-----------------------------------------------------------------|
G|--/15p13----13---------------------------------------------------|
D|---------------15-13-15p13--13-11-13-11----13-11----11-----------|
A|----------------------------------------13-------13----13p11h13--|
E|-----------------------------------------------------------------|

e|------------------------------------------------------------------|
B|----------------------------------------15-13-13-12-12---/16-15-15|
G|---------------------13-----------------15-13-13-12-12---/16-15-15|
D|------------11h13/15----15-13-13-12-12----------------------------|
A|------11h13-------------------------------------------------------|
E|11h13-------------------------------------------------------------|

e|-------16-15-15h16p15p13-15h16p15p13-15h16p15p13-15h16p15p13p15h16|
B|-13-13-16-15------------------------------------------------------|
G|-13-13------------------------------------------------------------|
D|------------------------------------------------------------------|
A|------------------------------------------------------------------|
E|------------------------------------------------------------------|

e|--18---------|
B|-------15-15-|
G|-------15-15-|
D|-------------|
A|-------------|
E|-------------|

I think you can figure out were these are played.
LICKS:

LICK #1

e|--5h6p5p3----------------|----------------------|
B|----------6-3------------|-1h3-1h3-1h3-1--------|
G|--------------5-3-5------|---------------3-3----|
D|-------------------------|----------------------|
A|-------------------------|----------------------|
E|-------------------------|----------------------|

LICK #2

e|-16p13p11-16p13p11-16p13-13p11-|
B|-------------------------------|
G|-------------------------------|
D|-------------------------------|
A|-------------------------------|
E|-------------------------------|

Thats it. ROCK ON!
            
Submit corrections

comments powered by Disqus
↑ Back to top | Weezer Tabs for Dope Nose. Lyrics for acoustic guitar and electric guitar. 1 Tablatures and chords are parodies/interpretations of the original songs. You may use it for private study, scholarship, research or language learning purposes only