» » »

Dope Nose Bass tabs (ver.2)

Artists:  A B C D E F G H I J K L M N O P Q R S T U V W X Y Z # 

Dope Nose Bass tabs (ver.2)

Weezer
Rating:
0/5 (0 votes)

Tabs too difficult? Try these video lessons and learn fast.
                __                                  __
  --------\ \                                / /--------
  ---------\ \              __              / /---------
            \ \            /  \            / /
  -----------\ \          / /\ \          / /-----------
  ------------\ \        / /  \ \        / /------------
               \ \      / /    \ \      / /
                \ \    / /      \ \    / /
                 \ \__/ /        \ \__/ /
                  \____/          \____/


Intro
G-----------|------------------
D-----------|------------------
A-----------|---6---6---6---6--
E------12\1-|666-666-666-666---

Verse
G-------------------------
D-------------------------
A--------6---6---6---6----
E-----666-666-111-666-----

Chorus pt.1
G-------------------------
D-------------------------
A-------------------------
E-----3333-6666-11111111--
Chorus pt.2
G-------------------------
D-------------------------
A-------------------------
E-----2222222222222222----

Outro
G-------------------------
D-------------------------
A--------6---6---66--789--
E-----666-666-666--67---9-

Here's the order:
Intro 1X
Verse 2X
Chorus pt.1 2x
Verse 2x
Chorus pt.1 2x
Chorus pt.2 1x
Verse 2x
Chorus pt.1 2x
Chorus pt.2 1x
Outro 1x

really easy song fun to play though
            
Tabs too difficult? Try these video lessons and learn fast.


comments powered by Disqus
↑ Back to top | Tablatures and chords are parodies/interpretations of the original songs. You may use it for private study, scholarship, research or language learning purposes only