» » »

Ween, Don't Get 2 Close (2 My Fantasy) Tabs (ver.1)

Artists:  A B C D E F G H I J K L M N O P Q R S T U V W X Y Z # 

Don't Get 2 Close (2 My Fantasy) Tabs (ver.1)

Ween Tabs
Rating:
0/5 (0 votes)
Don't Get 2 Close (2 My Fantasy) lessons Tabs too difficult? Try these video lessons and learn fast
                Don't Get 2 Close (2 My Fantasy) from "Pure Guava"
Tuning: Standard

Main Riff:
e|-----------------1--|
B|-----------------3--|
G|--2--------------2--|
D|--3-X5----2---------|
A|--3-------3-X5------|
E|----------3---------|


"Don't get to close.." (listen to song to play right) Riff:
e|---------------------------1--|
B|---------------------------3--|
G|-6---4---2----2---4---6----2--|
D|-7---5---3----3---5---7-------|
A|-7---5---3----3---5---7-------|
E|-5---3---1----1---3---5-------|


Bridge Riff:
e|----------------------------------1---|
B|----------------------------------3---|
G|-66--8-9-8---44--676---22--454----2---|
D|-77--9-109---55--787---33--565--------|
A|-77--9-109---55--787---33--565--------|
E|-55--7-8-7---33--565---11--343--------|
            

comments powered by Disqus
↑ Back to top | Ween Tabs for Don't Get 2 Close (2 My Fantasy). Lyrics for acoustic guitar and electric guitar. Tablatures and chords are parodies/interpretations of the original songs. You may use it for private study, scholarship, research or language learning purposes only