» » »

Ween, Hey There Fancy Pants Tabs (ver.1)

Artists:  A B C D E F G H I J K L M N O P Q R S T U V W X Y Z # 

Hey There Fancy Pants Tabs (ver.1)

Ween Tabs
Rating:
0/5 (0 votes)
Hey There Fancy Pants lessons Tabs too difficult? Try these video lessons and learn fast
                p=pull off
^=bend
h=hammer on
OPENING RIFF
E----------------------------------------------
B----------------------------------------------
G----------------------------------------------
D----------------------------------------------
A------5---5---5---5----7----5---3---2---0-
E-----------------------------------------------

G
Hey there, Fancy Pants

Play the songs that make us dance
                                                         A 
Play the tunes that make the ladies swoon
D
A song for all the lonely hearts

Shattered dreams and broken parts
                                                              D    C    F#    A
Feels like sunny days are doming soon


(In the second verse, the second guitar is playing this:   E---7---7--7---7---6----7--------------------
							      B------------------------------8---------------
							      
                                                                                           
G                                                                                        
Hey, Mr. Buttercup                                                            

Spin the wheel and try your luck
                                                                  A
The spotlight’s shining bright tonight on you                 E---------------------------12-----------12----13------14-
                                                                                         B---------------------14-----------14-----------------------
                                                                                         G-------14141414------------------------------------------

D
Bring along your lady-friend

Do a dance from way back when
							D    C    F#    A
Tonight’s the night where all your dreams come true

E--------------------12--14------12--14--15- leeway into guitar solo
B----15-15-15-15-----------15---------------


GUITAR SOLO
E---------------------------------------------------------------- ----999910-10-10-10-11-11-11-11-12-12-12-12--14-
B--0-----3---0--------------------------0--------------------0-1-2-----------------------------------------------------------
G-----0------------------0--0--0--0-------0------0-0-0-0---0---------------------------------------------------------------
D------------------0---------------------------0--------------------------------------------------------------------------------
A--------------------------------------------------------------------------------------------------------------------------------
E--------------------------------------------------------------------------------------------------------------------------------

E--------------------------------------------------------------------------------------------------------------------------------
B--------------------------------------------------------------------------------------------------------------------------------
G----------------------------------------------------------------------14h16------14h16-----14h1617-17-17-18-18-18-
D-------12^13—12^13---10-11-12-11-10--------------------16--------16-16------16-16------------------------------
A------------------------------------------------14-12-------------------------------------------------------------------------
E----------------------------------------------------------15-14---------------------------------------------------------------

E----------------------------------------16-16-16-17-17-17-18-18-18-19-18-17-16-15-14-12-------------------------
B-----16-16-16-17-17-17-18-18-18----------------------------------------------------------------15-16-17-12---------
G--------------------------------------------------------------------------------------------------------------------------------
D--------------------------------------------------------------------------------------------------------------------------------
A--------------------------------------------------------------------------------------------------------------------------------
E--------------------------------------------------------------------------------------------------------------------------------

Then at the end of the vocal part comes the tricky part (pray you have a long enough neck)

E-22p21p20-22p21p20p-20p19p17-20p19p17-19p18p17-19p18p17-17p16p15-17p16p15-15-------------------

G
Hey there, sour grapes

Down in the dumps, long in the face
                                                       A
Drinking down your dinner all alone
D
Feelin’ bad, feelin’ blue

Tonight the rainbow ends with you
                                                                   D   C   F#   A
So sit on down and make yourself at home  
now comes some solo that is so insane, I’m not even sure if its guitar so you may have to figure it out for yourself. Its basically arpeggios playing over the first verse of the song. That’s all, enjoy.
G
Hey there fancy pants

Play the songs that make us dance
                                                         A
Play the tunes that make the ladies swoon
D
A song for all the lonely hearts

Shattered dreams and broken parts
                                                             D   C   F#   A
Feels like sunny days are coming soon
            
Submit corrections

comments powered by Disqus
↑ Back to top | Ween Tabs for Hey There Fancy Pants. Lyrics for acoustic guitar and electric guitar. Tablatures and chords are parodies/interpretations of the original songs. You may use it for private study, scholarship, research or language learning purposes only