>
 >
Don't Get 2 Close (2 My Fantasy) 1

Don't Get 2 Close (2 My Fantasy) 1 Guitar Tabs

Ween - Don't Get 2 Close (2 My Fantasy) 1 chords, tabs, tablatures, lyrics

Guitar lessons | Add/correct | Request | Top 50 tabs Artists:  A B C D E F G H I J K L M N O P Q R S T U V W X Y Z 0-9

Don't Get 2 Close (2 My Fantasy) 1 Guitar Tabs – Ween

CD, Sheet music, Poster

Do you like Don't Get 2 Close (2 My Fantasy) 1? Share with your friends now
TabsTabs v2



What an awesome song! I hope this helps someone out there. Enjoy.


Intro

    (Strumming not shown here)
e|---------|---0---0---|
B|---------|---0---0---|
G|------2~-|---2---0---|
D|----3~---|---3---2---|
A|--3~-----|---3---3---|
E|---------|-------3---| x2


Verse
                  
e|--0---0----|---------3---|
B|--0---0----|---------3---|
G|--2---0----|---------2---|
D|--3---2----|---------0---|
A|--3---3----|---------0---|
E|------3----|-x3----------|
 "Don't quiver.."   "..with you..."


Chorus

e|-------------------------------|
B|-------------------------------|
G|--5--5--5--5-4--2--2--2--2-4---|
D|--7--7--7--7-5--3--3--3--3-5---|
A|--7--7--7--7-5--3--3--3--3-5---|
E|--5--5--5--5-3--1--1--1--1-3---| x3
   "Don't get too close..."


End chorus strumming:

e|--2---|
B|--3---|
G|--2---|
D|--0---|
A|--0---|
E|------|
  "You'll get to the surprise!"



Bridge

e|----------------------------------------0000------0000-------|
B|----------------------------------------0000------0000-------|
G|--5-5-5--5-4-2--4-4-4----------2-2-2-2--1111-2222-1111-2222--|
D|--7-7-7--5-4-2--5-5-5--10-9-7--3-3-3-3--2222-3333-2222-3333--|
A|--7-7-7--3-2-0--5-5-5--10-9-7--3-3-3-3--2222-3333-2222-3333--|
E|--5-5-5---------3-3-3--8--7-5--1-1-1-1--0000-1111-0000-1111--|


e|--------------------------0000000000000000--|
B|--------------------------0000000000000000--|
G|--5-5-5--5-4-2--4-4-4-4---1111111111111111--|
D|--7-7-7--5-4-2--5-5-5-5---2222222222222222--|
A|--7-7-7--3-2-0--5-5-5-5---2222222222222222--|
E|--5-5-5---------3-3-3-3---0000000000000000--|

And that's it!





Comments


Popular Ween tabs & chords
Drifter In The Dark Chords
Mister Would You Please Help My Pony Chords
What Deaner Chords
Alone Tabs
Buenas Tardes Amigo Tabs
Captain Tabs
Don't Shit Where You Eat 1 Tabs
I Don't Want It Tabs
Poor Ship Destroyer Tabs
Stroker Ace Tabs


Song lyrics



↑ Back to top | Tablatures and chords are parodies/interpretations of the original songs. You may use it for private study, scholarship, research or language learning purposes only
© 2014 AZChords.com Contact us | Privacy policy | DMCA | Add/correct tabs | Request tabs | Top 50 tabs