» » »

Buckingham Green Tabs (ver.2)

Artists:  A B C D E F G H I J K L M N O P Q R S T U V W X Y Z # 

Buckingham Green Tabs (ver.2)

Ween
Rating:
5/5 (2 votes)

Tabs too difficult? Try these video lessons and learn fast.
                these are the chords used through out the song so listen to the song and figure out the 
and timing for each.
  Am    F    C   Cmaj7 Dm   Em    E   E7    A
E -0-  -1-  -0-  -0-   -1-  -0-  -0-  -0-  -0-
B -1-  -1-  -1-  -0-   -3-  -0-  -0-  -3-  -0-
G -2-  -2-  -0-  -0-   -2-  -0-  -1-  -1-  -2-
D -2-  -3-  -2-  -2-   -0-  -2-  -2-  -2-  -2-
A -0-  -3-  -3-  -3-   -0-  -2-  -2-  -2-  -0-
E -0-  -1-  -x-  -x-   -x-  -0-  -0-  -0-  -0-
verse-Am,F,C,Dm,Em,E
 Am
A child without an eye (F)
C
made her mother cry
Dm
why ask why
   Em
she kept her child clean
E
on Buckingham Green (same pattern for other verses)

Fill 1
E ---------------------------------0--------------|
B ------3--0--------3--0-----------0--------------|
G ------------------------------2-----------------|
D ---2-----------------------2--------------------|
A 3--------------3--------0-----------------------|
E ------------------------------------------------|

Interlude/solo
E ------------------7h8p7-5-----------------------------------------------|
B ------------------------------------------8---/-12----10----8-----10----|
G ------------------------------------------------------------------------|
D ------------------------------------------------------------------------|
A ------------------------------------------------------------------------|
E ------------------------------------------------------------------------|

E -------------------------------------------------------------------------|
B 6-----------------6--8-/10----8-----6-----8-----5------------------------|
G ------------------------------------------------------------------5--7---|
D -------------------------------------------------------------------------|
A -------------------------------------------------------------------------|
E -------------------------------------------------------------------------|

E ------------------------------------------------------------------------|
B ------------------------------------------------------------------------|
G 9-----7-----5-----9-----7-----------------7--9-/10----9-----7---/-10----|
D ------------------------------------------------------------------------|
A ------------------------------------------------------------------------|
E ------------------------------------------------------------------------|

E ------------------------------------------------------------------------|
B ------------------------8-----------------8-----9-----------------------|
G 9-----------------9--10----10-9-----10----------------------------------|
D ------------------------------------------------------------------------|
A ------------------------------------------------------------------------|
E ------------------------------------------------------------------------|

E ------------------7h8p7-5-----------------------------------------------|
B ------------------------------------------8---/-12----10----8-----10----|
G ------------------------------------------------------------------------|
D ------------------------------------------------------------------------|
A ------------------------------------------------------------------------|
E ------------------------------------------------------------------------|

E 8-----------------------------------------------|
B ------------------------------------------------|
G ------------------------------------------------|
D ------------------------------------------------|
A ------------------------------------------------|
E ------------------------------------------------|
            
Tabs too difficult? Try these video lessons and learn fast.




comments powered by Disqus
↑ Back to top | Tablatures and chords are parodies/interpretations of the original songs. You may use it for private study, scholarship, research or language learning purposes only