» » »

Ween, Push The Little Daisies Tabs (ver.1)

Artists:  A B C D E F G H I J K L M N O P Q R S T U V W X Y Z # 

Push The Little Daisies Tabs (ver.1)

Ween Tabs
 Rating:
4/5 (4 votes)
Push The Little Daisies lessons Tabs too difficult? Try these video lessons and learn fast
                Tuning: standard

It’s a very simple but fun to play song,

Capo on 6th fret but you can play it without either.

INTRO/VERSE:
              ...When you lie
e|------------------------------------2---2--------------------------------|
B|---2--2----2----2--2---2---2--2-----4---4--------------------------------|
G|---1--1----1----1--1---1---1--1--0--4---4--------------------------------|
D|---2—-2----2----2--2---2---2--2--0--4---4-----2--4-----------------------|
A|---2--2----2----2--2---2---2--2--0--2---2--2--2--4-----------------------|
E|---0--0----0----0--0---0---0--0-----2---2--------------------------------|

e|---2--2----2----2--2---2-----0--0---0---0---0--0---0--0--------------------|
B|---4--4----4----4--4---4-----2--2---2---2---2--2---2--2--------------------|
G|---4--4----4----4--4---4--0--2—-2---2---2---2--2---2--2—-0-----------------|
D|---4—-4----4----4--4---4--0--2—-2---2---2---2--2---2--2--0-----------------|
A|---2--2----2----2--2---2--0--0—-0---0---0---0--0---0--0--0-----------------|
E|---2--2----2----2--2---2---------------------------------------------------|

e|-----------------------------------------------------------------------------|
B|---1---1---1--1---3--1---3--1--1---------------------------------------------|
G|---2---2---2--2---2--2---2--2--2--0------------------------------------------|
D|---2---2---2--2---2--2---2--2--2--0------------------------------------------|
A|---0---0---0--0---0--0---0--0--0--0------------------------------------------|
E|-----------------------------------------------------------------------------|

CHORUS

e|------2---2--2--2----------------------2---2--2--2-------------------------|
B|------2---2--2--2--0---2--0--2--0------2---2--2--2--0---2--0--2--0---------|
G|---1--1---1--1--1--4---4--4--4--4---1--1---1--1--1--4---4--4--4--4---------|
D|---2--2---2--2--2--4---4--4--4--4---2--2---2--2--2--4---4--4--4--4---------|
A|---2--2---2--2--2--2---2--2--2--2---2--2---2--2--2--2---2--2--2--2---------|
E|---0--0---0--0--0-------------------0--0---0--0--0-------------------------|

I used a little bit of help from the guitar pro file for people (such as myself)
who don’t really like to use Guitar Pro.

For comments letters or/and viruses-


| /  slide up
| \  slide down
| h  hammer-on
| p  pull-off
| ~  vibrato
| +  harmonic
| x  Mute note
            
Submit corrections

comments powered by Disqus
↑ Back to top | Ween Tabs for Push The Little Daisies. Lyrics for acoustic guitar and electric guitar. Tablatures and chords are parodies/interpretations of the original songs. You may use it for private study, scholarship, research or language learning purposes only