» » »

Ween, Bananas And Blow Tabs (ver.1)

Artists:  A B C D E F G H I J K L M N O P Q R S T U V W X Y Z # 

Bananas And Blow Tabs (ver.1)

Ween Tabs
 Rating:
4.2/5 (5 votes)
Bananas And Blow lessons Tabs too difficult? Try these video lessons and learn fast
1
                Em...

verses/guitar breaks
Em.......  D.......
Em.......  D.......
Em.......  D.......
 D....... Em.......
 D.......  G.......

chorus
C... D... Em.......
C... D...  G.......

guitar break (it's a piano on the cd but it's fun to play on guitar)

e|------------------------------------------|
B|----10-12-12-10-12-10----10---------------|
G|-12-------------------12----12-11-11-9----|
D|---------------------------------------12-|
A|------------------------------------------|
E|------------------------------------------|

e|------------------------------------------|
B|----10-12-12-10-12-10----10---------------|
G|-12-------------------12----12-11-11------|
D|------------------------------------------|
A|------------------------------------------|
E|------------------------------------------|

e|------------------------------------------|
B|----10-12-12-10-12-10----10---------------|
G|-12-------------------12----12-11-11-9----|
D|---------------------------------------12-|
A|------------------------------------------|
E|------------------------------------------|

e|------------------------------------------|
B|---------------10-10-10-12-10-------------|
G|----9-11-11-12----------------9-----------|
D|-12---------------------------------------|
A|------------------------------------------|
E|------------------------------------------|

e|------------------------------------------|
B|---------------10-10-10-12-10-------------|
G|----9-11-11-12----------------12----------|
D|-12---------------------------------------|
A|------------------------------------------|
E|------------------------------------------|

lyrics:

(guitar break)

Sancho brought a message from the fat man
sorry boy to leave you high and dry
but I went to see my Mom in Ensinada
and I left a little something to help the time go by
just a little something to help to keep you high

-bananas and blow (oh oh)
-bananas and blow-oh (bananas and blow-oh)
-stuck in my cabana, living on bananas and blow

(guitar break)

well the rainy season reminds me of Maria
the way she danced, the colour of her hair
but now I'm locked in a stall inside of the cantina
eating the bananas and the cocaine off the mirror
looking for a ticket to take me away from here

-bananas and blow (oh oh)
-bananas and blow-oh (bananas and blow-oh)
-stuck in my cabana, living on bananas and blow

-bananas and blow (oh oh)
-bananas and blow-oh (bananas and blow-oh)
-stuck in my cabana, living on bananas and blow

(guitar solo)

-bananas and blow (oh oh)
-bananas and blow-oh (bananas and blow-oh)
-stuck in my cabana, living on bananas and blow

-bananas and blow (oh oh)
-oh, bananas and blow-oh (bananas and blow-oh)
-I'm stuck in my cabana, living on bananas and blow

finish on Em
            
Submit corrections

comments powered by Disqus
↑ Back to top | Ween Tabs for Bananas And Blow. Lyrics for acoustic guitar and electric guitar. 1 Tablatures and chords are parodies/interpretations of the original songs. You may use it for private study, scholarship, research or language learning purposes only