>
 >
A Tear For Eddie 2

A Tear For Eddie 2 Guitar Tabs

Ween - A Tear For Eddie 2 chords, tabs, tablatures, lyrics

Guitar lessons | Add/correct | Request | Top 50 tabs Artists:  A B C D E F G H I J K L M N O P Q R S T U V W X Y Z 0-9

A Tear For Eddie 2 Guitar Tabs – Ween

CD, Sheet music, Poster

Do you like A Tear For Eddie 2? Share with your friends now
TabsTabs v2Tabs v3
Hello everyone, this is my first tab so sorry if it's wrong or a bit dodgy or even very 
It sounds pretty decent so I hope it works for you guys, I'm kinda new to guitar and not 
good at it but hey I'm learning so yeah, enjoy!

E----------------------------------------------------------------------|
B----------------------------------------------------------------------|
G------9-11-9-11-11b12r11-9-11-9-11/13-11----9-11-9-11-11b12r11-9-11-9-|
D---11------------------------------------11---------------------------|
A----------------------------------------------------------------------|
E----------------------------------------------------------------------|

E----------------------------------------------------------------------|
B---9-9-10-7-------------------------------9-9-10-7--------------------|
G------------9-11/13\11-9-11----11/13-11-9----------9-11/13\11-9-11----|
D----------------------------11-------------------------------------11-|
A----------------------------------------------------------------------|
E----------------------------------------------------------------------|

E---12-11-9--------------------------------------|
B-----------12-10-9------------------------------|
G-------------------11-9-------------------------|
D------------------------11-10-9-----------------|
A--------------------------------11-10-9/7\8\9-7-|
E------------------------------------------------|

E---14-14-12-14-12-17-14-12-14-12/9\14-12--------|
B------------------------------------------------|
G------------------------------------------------|
D------------------------------------------------|
A------------------------------------------------|
E------------------------------------------------|

Repeat all of the above, then

E----------------------------------------------------------------------------|
B--------------------------------------12/14\12------------------------------|
G---9-11-9-11-11b12r11-9-11-9-11/13-11-------------9-11-9-11-11b12r11-9-11-9-|
D11---------------------------------------------11---------------------------|
A----------------------------------------------------------------------------|
E----------------------------------------------------------------------------|

E---------------------------------------------------------------------------|
B---9-9-10-7-------------------------------9-9-10-7-------------------------|
G------------9-11/13\11-9-11----11/13-11-9----------9-11/13\11-9-11---------|
D----------------------------11-------------------------------------11------|
A---------------------------------------------------------------------------|
E---------------------------------------------------------------------------|

E---12-11-9--------------------------------------|
B-----------12-10-9------------------------------|
G-------------------11-9-------------------------|
D------------------------11-10-9-----------------|
A--------------------------------11-10-9/7\8\9-7-|
E------------------------------------------------|

E---14-14-12-14-12-17-14-12-14-12/9\14-12--------|
B------------------------------------------------|
G------------------------------------------------|
D------------------------------------------------|
A------------------------------------------------|
E------------------------------------------------|

E------------------------------------------------|
B------------------------------------------------|
G------9-11-9-11-11b12r11-9-11-9-11/13-11--------|
D---11-------------------------------------------|
A------------------------------------------------|
E------------------------------------------------|

E-----------------------------------------------------|
B-----------------------------------------12/14\12----|
G------9-11-9-11-11b12r11-9-11-9-11/13-11-------------|
D---11------------------------------------------------|
A-----------------------------------------------------|
E-----------------------------------------------------|

E----------------------------------------------------------------------------|
B-21-21-22-19-17-19/21\19-17-19-14-21-19-17-21-21-22-19-17-19/21\19-17-19-14-|
G----------------------------------------------------------------------------|
D----------------------------------------------------------------------------|
A----------------------------------------------------------------------------|
E----------------------------------------------------------------------------|

E---12-11-9-----------------------------------------|
B-----------12-10-9---------------------------------|
G-------------------11-9----------------------------|
D------------------------11-10-9--------------------|
A--------------------------------11-10-9/7\8\9-7----|
E---------------------------------------------------|

E---14-14-12-14-12-17-14-12-14-12/9\14-12-----------|
B---------------------------------------------------|
G---------------------------------------------------|
D---------------------------------------------------|
A---------------------------------------------------|
E---------------------------------------------------|

And that's it. Sorry I haven't tabbed the awesome end effects bit but I haven't worked 
out yet, so if anyone else has or could that would be awesome.
Toddles Betty.





Comments


Popular Ween tabs & chords
Push The Little Daisies 1 Bass Tabs
Bananas And Blow 1 Chords
Falling Out 1 Chords
So Long Jerry Chords
What Deaner Chords
I Got A Weasel Tabs
It's Gonna Be A Long Night Tabs
Oh My Dear I Must Be Falling In Love Tabs
Ooh Vah Lah Tabs
Stacey Tabs


Song lyrics



↑ Back to top | Tablatures and chords are parodies/interpretations of the original songs. You may use it for private study, scholarship, research or language learning purposes only
© 2014 AZChords.com Contact us | Privacy policy | DMCA | Add/correct tabs | Request tabs | Top 50 tabs