>
 >
A Tear For Eddie

A Tear For Eddie Guitar Tabs

Ween - A Tear For Eddie chords, tabs, tablatures, lyrics

Guitar lessons | Add/correct | Request | Top 50 tabs Artists:  A B C D E F G H I J K L M N O P Q R S T U V W X Y Z 0-9

A Tear For Eddie Guitar Tabs – Ween

CD, Sheet music, Poster

Do you like A Tear For Eddie? Share with your friends now
TabsTabs v2Tabs v3
-------------------------------------------------------------------------------
-------------------------------------------------------------------------------

Tuning: Standard

This is an update of the the other 2 tabs basically. I've tabbed out the entire solo and made
adjustments to some parts. Sounds 100% to me.

The following are the main lead riffs played throughout. These are just the basic shapes 
so you can improvise a little.

e|-----------------------------------------------------------------------------|
B|-----------------------------------------------------------------------------|
G|------9-11-9-11-11b12r11-9h11-9-11/13-11----9-11-9-11-11b12r11-9-11-9--------|
D|---11------------------------------------11----------------------------------|
A|-----------------------------------------------------------------------------|
E|-----------------------------------------------------------------------------|

e|-----------------------------------------------------------------------------|
B|---9-9-10--------------------------------------------------------------------|
G|----------11--9-11/13--11-9-11-----11/13-11-9--------------------------------|
D|-------------------------------11--------------------------------------------|
A|-----------------------------------------------------------------------------|
E|-----------------------------------------------------------------------------|

e|-----------------------------------------------------------------------------|
B|----14-12--------------------------------------------------------------------|
G|----------13-12--------------------------------------------------------------|
D|----------------16~-14-------------------------------------------------------|
A|-----------------------16-14------------------7h9-7h9-7----------------------|
E|------------------------------16-15-14--12/9---------------------------------|

I noted the 2nd bend in the following because it sounds better if you strike the 
note at the top of the bend then bring it back down.


e|------14b15r14-12h14-14b15r14*-12h14-12----12h14-12--------------------------|
B|----------------------------------------14-----------------------------------|
G|-----------------------------------------------------------------------------|
D|-----------------------------------------------------------------------------|
A|-----------------------------------------------------------------------------|
E|-----------------------------------------------------------------------------|


Solo

Again, wherever there's a *, strike the note at the top of the bend:

e|-----------------------------------------------------------------------------|
B|-----------------------------------------------------12--9h12p9h12p9h12(etc)-|
G|------------------------------11b12r11--9--9h11--9---------------------------|
D|------------------------9-11-------------------------------------------------|
A|-----------------7h9/11------------------------------------------------------|
E|-------7h9---7h9-------------------------------------------------------------|

e|----------------12b14r12*-9h12-9------------------------------------------------|
B|--12/14-12---9-------------------12-10/9----------------------------------------|
G|------------------------------------------11-9----------------------------------|
D|-----------------------------------------------11-10-9--------------------------|
A|-------------------------------------------------------11-10-9-7---7---7h9-9~---|
E|-----------------------------------------------------------------9---9----------|

e|----------------------------------------------------------------------------12-14-|
B|---------------------------------------------------------------9-11-12-12/14------|
G|----------------------------------------------------------9-11--------------------|
D|-----------------------------------------------------9-11-------------------------|
A|---7-9b10r9--7h9-7-------------7----7--9/11-9---9/11------------------------------|
E|--------------------9---0--7h9---9------------------------------------------------|

e|---12-14-14b16r14*-12h14-12--14b16r14~-12-14b16r14*-12h14-12----12h14-12----------|
B|-------------------------------------------------------------14-------------------|
G|----------------------------------------------------------------------------------|
D|----------------------------------------------------------------------------------|
A|----------------------------------------------------------------------------------|
E|----------------------------------------------------------------------------------|

e|----------------------------------------------------------------------------------|
B|-14-12----------------------------14----------------------------------------------|
G|---------13-11/9----11b13r11-9--13---13-11-9------11b13r11*-9-11--11b13r11*-9-11--|
D|----------------11---------------------------11-----------------------------------|
A|----------------------------------------------------------------------------------|
E|----------------------------------------------------------------------------------|

e|----------------------------------------14-16-19b21r19-16h19-19b21-19-21b22r21*---|
B|----------------------------------------------------------------------------------|
G|--11b13r11*-9-11--11b13r11*-9-11--11/18-------------------------------------------|
D|----------------------------------------------------------------------------------|
A|----------------------------------------------------------------------------------|
E|----------------------------------------------------------------------------------|

e|--19-16--------------------------------------------------------------------------|
B|--------20/19-17--19h21p19-17--14h17p14----14--17b21-----------------------------|
G|----------------------------------------16--------------0------------------------|
D|--------------------------------------------------------0------------------------|
A|---------------------------------------------------------------------------------|
E|---------------------------------------------------------------------------------|

e|---9h12p9------------------------------------------------------------------------|
B|---------12-9h12p9---------------------------------------------------------------|
G|------------------11--9h11p9-----------------------------------------------------|
D|----------------------------11--9h11p9-------------------------------------------|
A|--------------------------------------11--9-11-9-7--7--9-7-----------------------|
E|---------------------------------------------------9--9--------------------------|

Enjoy!

| /  slide up
| \  slide down
| h  hammer-on
| p  pull-off
| ~  vibrato
| +  harmonic
| x  Mute note
| b  bend
| r  release bend
===============================================================================





Comments


Popular Ween tabs & chords
Don't Laugh (I Love You) Bass Tabs
Nichole 3 Bass Tabs
Exactly Where I'm At Chords
Sarah Chords
Buckingham Green 2 Tabs
Learning To Love Tabs
Mutilated Lips Tabs
Stallion Part 2 Tabs
You Fucked Up Tabs
Tender Situation Ukulele


Song lyrics



↑ Back to top | Tablatures and chords are parodies/interpretations of the original songs. You may use it for private study, scholarship, research or language learning purposes only
© 2014 AZChords.com Contact us | Privacy policy | DMCA | Add/correct tabs | Request tabs | Top 50 tabs