» » »

Warpaint, Burgundy Tabs (ver.2)

Artists:  A B C D E F G H I J K L M N O P Q R S T U V W X Y Z # 

Burgundy Tabs (ver.2)

Warpaint Tabs
 Rating:
4/5 (4 votes)
Burgundy lessons Tabs too difficult? Try these video lessons and learn fast
1
                -----------------------------------------------------------------------------
                             Burgundy - Warpaint
-------------------------------------------------------------------------------

Tuning: Standard

Main Part Repeated Throughout Most Of The Song

e|----------------------7--7-------------------------------------------------|
B|--------0--7~---7--7---------------10--10----------------------------------|
G|-----7--------------------------------------9------------------------------|
D|----------------------------9--9-------------------------------------------|
A|---------------------------------------------------------------------------|
E|---------------------------------------------------------------------------|

e|---------------------------------------------------------------------------|
B|-----------------------------10--10------7~--------------------------------|
G|-----7--0--7~---7--7------------------9------------------------------------|
D|----------------------9--9-------------------------------------------------|
A|---------------------------------------------------------------------------|
E|---------------------------------------------------------------------------|

 Second Part (not too sure how accurate it is but i think its close)


e|---------------------------------------------------------------------------|
B|---------------------------------------------------------------------------|
G|---------6------------------6----------------------------------------------|
D|------------7------------7-------------------------------------------------|
A|--9--9------------7--7-----------------------------------------------------|
E|---------------------------------------------------------------------------|


************************************

| /   slide up
| \   slide down
| h   hammer-on
| p   pull-off
| ~   vibrato
| +   harmonic
| x   Mute note
| b   Bend
| pb  Pre-bend
| br  Bend release
| pbr Pre-bend release
| brb Bend release bend

************************************
            
Submit corrections

comments powered by Disqus
↑ Back to top | Warpaint Tabs for Burgundy. Lyrics for acoustic guitar and electric guitar. 1 Tablatures and chords are parodies/interpretations of the original songs. You may use it for private study, scholarship, research or language learning purposes only