» » »

Warpaint, Billie Holiday Tabs (ver.3)

Artists:  A B C D E F G H I J K L M N O P Q R S T U V W X Y Z # 

Billie Holiday Tabs (ver.3)

Warpaint Tabs
 Rating:
4.4/5 (7 votes)
Billie Holiday lessons Tabs too difficult? Try these video lessons and learn fast
1
                Intro & song

(0) is only played once at the beginning. After that, it's repeated all the way through the song.


     A min                                    D min           A min
E |-------------------------------------------1---------0--------------------|
B |--------1--------0-------0-------0----3--------3-------------1--------1---|
G |---2--------2-------0-------0-----------2---------0------2-------2--------|
D |------2--------2-------0-------0-----0----------------------2-------2-----|
A |-(0)----------------------------------------------------------------------|
E |--------------------------------------------------------------------------|

Note: There are some minor variations during some bridges and at the end, I'm 
going to add those later.


2nd guitar:

Again, (0) only played in intro.  
slightly shifted to main tune.

     A min           G maj                  D min             A min
E |--------------------------------------------------------------------------|
B |--------------------------------------------------------------------------|
G |------------------------------------------2--------0----------------------|
D |----2---------(0)-----0-------0---------0-------0------------2----2----2--|
A |-0--------(0)---------------------------------------------0----0-----0----|
E |------------------3------3------------------------------------------------|

these are my first tabs, enjoy!
            
Submit corrections

comments powered by Disqus
↑ Back to top | Warpaint Tabs for Billie Holiday. Lyrics for acoustic guitar and electric guitar. 1 Tablatures and chords are parodies/interpretations of the original songs. You may use it for private study, scholarship, research or language learning purposes only