>
 >
Fall To Pieces 1

Fall To Pieces 1 Bass Tabs

Velvet Revolver - Fall To Pieces 1 chords, tabs, tablatures, lyrics

Guitar lessons | Add/correct | Request | Top 50 tabs Artists:  A B C D E F G H I J K L M N O P Q R S T U V W X Y Z 0-9

Fall To Pieces 1 Bass Tabs – Velvet Revolver

CD, Sheet music, Poster

Do you like Fall To Pieces 1? Share with your friends now
Bass TabsBass Tabs v2Bass Tabs v3Bass Tabs v4ChordsChords v2TabsTabs v2Tabs v3Tabs v4Ukulele
standard tuning

Intro
   S  E.  +E   S  S  +H        E.  S  +E   E  +S   E.  +Q
|---------------------------|-17--16-(16)-14-(14)-12--(12)--|
|-14p12--(12)-14p12-(12)----|-------------------------------|
|---------------------------|-------------------------------|
|---------------------------|-------------------------------|


   S  E.  +E   S  S  +Q.   S   S    E.  S  +E   E  +Q    Q
|--------------------------------|-17--16-(16)-14-(14)--12--|
|-14p12--(12)-14p12-(12)-----/17-|--------------------------|
|--------------------------------|--------------------------|
|--------------------------------|--------------------------|


Verse
   S  E.  +E   S  S  +H        E.  S  +E   E  +S   E.  +Q
|---------------------------|-17--16-(16)-14-(14)-12--(12)--|
|-14p12--(12)-14p12-(12)----|-------------------------------|
|---------------------------|-------------------------------|
|---------------------------|-------------------------------|


   S  E.  +E   S  S  +Q.   S   S    E.  S  +E   E  +S   E.  +Q
|--------------------------------|-17--16-(16)-14-(14)-12--(12)--|
|-14p12--(12)-14p12-(12)-----/17-|-------------------------------|
|--------------------------------|-------------------------------|
|--------------------------------|-------------------------------|


   S  E.  +E   S  S  +H         E.  S  +E   E  +S   E.  +Q
|---------------------------|-/17--16-(16)-14-(14)-12--(12)--|
|-14p12--(12)-14p12-(12)----|--------------------------------|
|---------------------------|--------------------------------|
|---------------------------|--------------------------------|


   S  E.  +E   S  S  +Q.   S   S    E.  S  +E   E  +S   E.  S  S  E
|--------------------------------|-17--16-(16)-14-(14)-12------------|
|-14p12--(12)-14p12-(12)-----/17-|-------------------------14p12-----|
|--------------------------------|-------------------------------14S=|
|--------------------------------|-----------------------------------|


Pre Chorus
   S  S  S  S  S S  S  S  S  S  S  S  S  S  S S
|-----------------------------------------------|
|-----------------------------------------------|
|-12-12-12-12-12-0S12-12-12-12-12-12-12-12-12-0-|
|-----------------------------------------------|


   S  S  S  S S S E S S S S S S E
|----------------------------------|
|----------------------------------|
|-10-10-10-10-9-0-5-5-5-5-7p5-3----|
|-------------------------------5\-|


   S  S  S  S  S S  S  S  S  S  S  S  S  S  S S
|-----------------------------------------------|
|-----------------------------------------------|
|-12-12-12-12-12-0S12-12-12-12-12-12-12-12-12-0-|
|-----------------------------------------------|


   S  S  S  S S S  E  S  S  S  S  S E.
|--------------------------------------|
|--------------------------------------|
|-10-10-10-10-9-0-12-12-10-------------|
|--------------------------12-11-10S3--|


  E. S S S E +S  S E S E S   E. S S S E +S  S S S E S S
|--------------------------|----------------------------|
|--------------------------|----------------------------|
|-5--5-5-0-5-(5)-5-5-5-5-0-|-3--3-------------2-3-2-3-0-|
|--------------------------|------0h2-3-(3)-3-----------|


  E. S S S E S S  S S S S S S   E. S S S E +H
|-----------------------------|-------------------|
|-------------------7-9-7-----|------3-4-5-(5)----|
|-5--5-5-0-5-5-5-/9-------9-0-|-3--0--------------|
|-----------------------------|-------------------|


Verse
  Q  E E +H       Q  E E +Q.   E   Q  E E +H       Q  S S E +Q   Q
|---------------|----------------|---------------|------------------|
|---------------|----------------|---------------|------------------|
|-5----5-(5)----|-3--------------|-5----5-(5)----|-3-------------3--|
|---------------|------3-(3)-----|---------------|----0-2-3-(3)-----|


  Q  E E +H       Q  E E +Q   Q    Q  E E +H       Q  S S E +S  S S S E E
|---------------|----------------|---------------|-------------------------|
|---------------|----------------|---------------|-------------------------|
|-5----5-(5)----|-3-----------3--|-5----5-(5)----|-3--------------2-3-2-3S=|
|---------------|------3-(3)-----|---------------|----0-2-3-(3)-3----------|


Pre Chorus
   S  S  S  S  S S  S  S  S  S  S  S  S  S  S S
|-----------------------------------------------|
|-----------------------------------------------|
|-12-12-12-12-12-0S12-12-12-12-12-12-12-12-12-0-|
|-----------------------------------------------|


   S  S  S  S S S E S S S S S S E
|----------------------------------|
|----------------------------------|
|-10-10-10-10-9-0-5-5-5-5-7p5-3----|
|-------------------------------5\-|


   S  S  S  S  S S  S  S  S  S  S  S  S  S  S S
|-----------------------------------------------|
|-----------------------------------------------|
|-12-12-12-12-12-0S12-12-12-12-12-12-12-12-12-0-|
|-----------------------------------------------|


   S  S  S  S S S  E  S  S  S  S  S E.
|--------------------------------------|
|--------------------------------------|
|-10-10-10-10-9-0-12-12-10-------------|
|--------------------------12-11-10S3--|


Chorus
    E. S S S E +S  S E S E S   E. S S S E +S  S S S E S S  3x
||---------------------------|-----------------------------||
||o--------------------------|----------------------------o||
||o-5--5-5-0-5-(5)-5-5-5-5-0-|-3--3-------------2-3-2-3-0-o||
||---------------------------|------0h2-3-(3)-3------------||


  E. S S S E +S  S E S E S   E. S S S E +S  S E +Q
|--------------------------|-------------------------|
|--------------------------|-------------------------|
|-5--5-5-0-5-(5)-5-5-5-5-0-|-3--3--------------------|
|--------------------------|------0h2-3-(3)-3-3-(3)--|


Bridge
    S S S S S S S S S S S S S S S S   S S S S S S S S S S S S S S E
||----------------------------------|--------------------------------||
||o---------------------------------|-------------------------------o||
||o-2-2-2-2-2-2-2-2-2-2-2-2---------|-----------------------------5-o||
||--------------------------0-0-0-0-|-3-3-3-3-3-3-3-3-3-3-3-3-3-0----||


  S S S S S S S S S S S S S S S S   S S S S S S S S S S S S S S S S
|---------------------------------|---------------------------------|
|---------------------------------|---------------------------------|
|-2-2-2-2-2-2-2-2-2-2-2-2-5-5-5-5-|-0-0-0-0-0-0-0-0-0-0-0-0-0-0-----|
|---------------------------------|-----------------------------0-2-|


  S S S S S S S S S S S S S S S S
|----------------------------------|
|----------------------------------|
|----------------------------------|
|-3-3-3-3-3-3-3-3-3-3-3-3-3-3-3-3/-|


  S S  S  S  S  S  S  S  S  S  S  S  S S  S S
|---------------------------------------------|
|---------------------------------------------|
|-8-9-10-10-10-10-10-10-10-10-10-10-10-8------|
|----------------------------------------10-8-|


Guitar Solo
  E. S S S E +S  S E S E S   E. S S S E +S  S S S E S S
|--------------------------|----------------------------|
|--------------------------|----------------------------|
|-5--5-5-0-5-(5)-5-5-5-5-0-|-3--3-------------2-3-2-3-0-|
|--------------------------|------0h2-3-(3)-3-----------|


  E. S S S E +S    S  S  S  S  S  S S   E. S S S E +S  S S S E S S
|-------------------------------------|----------------------------|
|----------------/10-11-12-10---------|----------------------------|
|-5--5-5-0-5-(5)--------------12-10-0-|-3--3-------------2-3-2-3-0-|
|-------------------------------------|------0-2-3-(3)-3-----------|


  E. S S S E +S  S E S E S   E. S S S E +S  S S S S S E
|--------------------------|-----------------------------|
|--------------------------|-----------------------------|
|-5--5-5-0-5-(5)-5-5-5-5-0-|-3--3------------------------|
|--------------------------|------0-2-3-(3)-3-3-3-3-3-3\-|


  S S S S S S S S S S S S S S S S   S S S S S S S S S S S S S E.
|---------------------------------|------------------------------|
|---------------------------------|------------------------------|
|---------------------------------|------------------------------|
|-0-0-0-0-0-0-0-0-0-0-0-0-0-0-0-0-|-3-3-3-3-3-3-5-5-5-5-5-5-5-3--|


Chorus
    E. S S S E +S  S E S E S   E. S S S E +S  S S S E S S  3x
||---------------------------|-----------------------------||
||o--------------------------|----------------------------o||
||o-5--5-5-0-5-(5)-5-5-5-5-0-|-3--3-------------2-3-2-3-0-o||
||---------------------------|------0h2-3-(3)-3------------||


  E. S S S E +S  S   S  S  S  S  S S
|------------------------------------|
|------------------/10-11-12-12-12-0-|
|-5--5-5-0-5-(5)-5-------------------|
|------------------------------------|


   S  S  S  S  S S  S  S  S  S  S S  S S  S S
|---------------------------------------------|
|-10-10-10-10-10-0----------------------------|
|------------------10-10-10-10-10-0-10-8----8-|
|----------------------------------------10---|


Outro Chorus
    E. S S S E +S  S E S E S   E. S S S E +S  S S S E S S  3x
||---------------------------|-----------------------------||
||o--------------------------|----------------------------o||
||o-5--5-5-0-5-(5)-5-5-5-5-0-|-3--3-------------2-3-2-3-0-o||
||---------------------------|------0h2-3-(3)-3------------||


  E. S S S E +S  S E S S S S   E. S S S E +H
|----------------------------|-------------------|
|----------------------------|-------------------|
|-5--5-5-0-5-(5)-5-5-5-5-5-0-|-3--3--------------|
|----------------------------|------0-2-3-(3)----|

on my other tab i did a shitty job so heres a better one





Comments


Popular Velvet Revolver tabs & chords
Come On Come In Bass Tabs
Fall To Pieces Bass Tabs
Sucker Train Blues Bass Tabs
Loving The Alien Chords
Slither 1 Drum Tabs
American Man 3 Tabs
Last Fight Intro 1 Tabs
Slither 5 Tabs
Sucker Train Blues 4 Tabs
You Got No Right (Solo) Tabs


Song lyrics



↑ Back to top | Tablatures and chords are parodies/interpretations of the original songs. You may use it for private study, scholarship, research or language learning purposes only
© 2014 AZChords.com Contact us | Privacy policy | DMCA | Add/correct tabs | Request tabs | Top 50 tabs