» » »

Set Me Free Tabs (ver.1)

Artists:  A B C D E F G H I J K L M N O P Q R S T U V W X Y Z # 

Set Me Free Tabs (ver.1)

Velvet Revolver
Rating:
0/5 (0 votes)

Hard to play? Try these video lessons and learn fast.
                Standard Tunning 'EADGBe' (low to high)



Intro/bridge:

Gtr.1:


|----------------------------------------------------------------------------\
|--x--x-x--x----4r3---------------------------------------------------------- \
|--x--x-x--x--------5---5-5---6-5---1-2--------------------------------------
|--x--x-x--x-----------------------------------------------------------------   x4
|--x--x-x--x----------------------------------------------------------------- /
|----------------------------------------------------------------------------/

Gtr.2:

|----------------------------------------------------------------------------
|----------------------------------------------------------------------------
|-2\/\/\/\/\/\/\-------------------------------------------------------------
|-2/\/\/\/\/\/\/-------------------------------------------------------------
|-0/\/\/\/\/\/\/-------------------------------------------------------------
|----------------------------------------------------------------------------







Gtr2:(comes in after the riff above)

|----------------------------------------------------------------------------
|----------------------------------------------------------------------------
|----------------------------------------------------------------------------
|-2-2--5-5--7-7--5-5--2-2--5-5--8--7--5--2-2---------------------------------
|-0-0--3-3--5-5--3-3--0-0--3-3--6--5--3--0-0---------------------------------
|----------------------------------------------------------------------------

*note-after intro both are played at the same time during the bridge(s)



Verse(no guitar..sorry:D)


Chorus:

|----------------------------------------------------------------------------
|-3\/\/\/--------------------------------------------------------------------
|-2\/\/\/-3\/\/\/\/\--5\/\/\/\/----------------------------------------------
|-0\/\/\/-3\/\/\/\/\/-5\/\/\/\--5\/\/\/\/------------------------------------
|-0/\/\/\-1/\/\/\/\/--3/\/\/\/--5\/\/\/\/------------------------------------
|-x-----------------------------3\/\/\/\/------------------------------------


so set me free.......


|----------------------------------------------------------------------------
|-3\/\/\/\/------------------------------------------------------------------
|-2\/\/\/\/-3\/\/\/\/\/-5\/\/\/\/---5\/\/\/\/\/------------------------------
|-0\/\/\/\/-3\/\/\/\/\/-5\/\/\/\/---5\/\/\/\/\/------------------------------
|-0\/\/\/\/-1/\/\/\/\/\-3/\/\/\/\---3\/\/\/\/\/------------------------------
|-x--------------------------------------------------------------------------

.....set me freeeeeeeeeeeee...................




Bridge2/Outro:
(little tricky)

|----------------------------------------------------------------------------
|----------------------------------------------------------------------------
|------------------------------2/\/\/----------------------------------------
|-3-----2-----5--5-5-5---3--2--2\/\/\----------------------------------------
|-3-----2-----5--5-5-5---3--2--0\/\/\----------------------------------------
|-1-----0-----3--3-3-3---1--0------------------------------------------------

so take me down............



I realise it's incomplete..feel free to help out
            
Hard to play? Try these video lessons and learn fast. | Correct




comments powered by Disqus
↑ Back to top | Tablatures and chords are parodies/interpretations of the original songs. You may use it for private study, scholarship, research or language learning purposes only