» » »

Headspace Tabs (ver.2)

Artists:  A B C D E F G H I J K L M N O P Q R S T U V W X Y Z # 

Headspace Tabs (ver.2)

Velvet Revolver
Rating:
0/5 (0 votes)

Hard to play? Try these video lessons and learn fast.
                Band - Velvet Revolver
Song - Headspace

Intro: 
|-------------------------------|
|-------------------------------|
|-------------------------------|
|-5-5-5-5-5-5--4S5-5-5-5-5-5----|
|-3-3-3-3-3-3--2S3-3-3-3-3-3----|
|-------------------------------|
  
|----------------------------|
|----------------------------|
|----------------------------|
|----------------------------|
|-3-5-3-0---3---3---3---2----|
|---------0-3-0-3-0-3-0-2----|

Verse:  
|----------------------|-------------------|
|----------------------|-------------------|
|----------------------|-------------------|
|----------------------|-------------------|
|-5-7-7-5-7-5-7--x-x-x-|--5-7-7-5-7-5-7----|
|-5-7-7-5-7-5-7--x-x-x-|--5-7-7-5-7-5-7----|

Chorus:
|----------------------------|
|----------------------------|
|----------------------------|
|----------------------------|
|-3-5-3-0---3---3---3---2----|
|---------0-3-0-3-0-3-0-2----|

Verse:
|----------------------|-------------------|
|----------------------|-------------------|
|----------------------|-------------------|
|----------------------|-------------------|
|-5-7-7-5-7-5-7--x-x-x-|--5-7-7-5-7-5-7----|
|-5-7-7-5-7-5-7--x-x-x-|--5-7-7-5-7-5-7----|

Chorus:
|----------------------------|
|----------------------------|
|----------------------------|
|----------------------------|
|-3-5-3-0---3---3---3---2----|
|---------0-3-0-3-0-3-0-2----|

Bridge:  
|------------------|
|------------------|
|-7---5------------|
|-7---5------------|
|-5---3---10--8----|
|---------10--8----|

Solo:
|-------------------------------------------------------------------------------------|
|-----------------------------15b17----13-15b16--13-14-13----12-13-12----12-----------|
|-----------------------------------14--------------------16----------14----12-14-12--|
|-5r=5--5r=5-3p-5p-3---3--------------------------------------------------------------|
|--------------------5----------------------------------------------------------------|
|-------------------------------------------------------------------------------------|

|-------------------------|
|-------------------------|
|----12----------13-10----|
|-15----15-12-15----------|
|-------------------------|
|-------------------------|
  
|------------------------------------------12-9----9------10-13-------10-13-10-13--------|
|----------------------------------9-10-12------12---9-12-------13-10-------------13-10--|
|---------------------------8-9-11-------------------------------------------------------|
|-------------8-9-11-8-9-11--------------------------------------------------------------|
|--------9-11----------------------------------------------------------------------------|
|-5b7------------------------------------------------------------------------------------|
   
|-15-12----10-13-10-------------------------------------|
|-------13----------10-11--------------------10b10.5----|
|-------------------------12-14----------10-------------|
|-------------------------------12-10-12----------------|
|-------------------------------------------------------|
|-------------------------------------------------------|

Verse:
|----------------------|-------------------|
|----------------------|-------------------|
|----------------------|-------------------|
|----------------------|-------------------|
|-5-7-7-5-7-5-7--x-x-x-|--5-7-7-5-7-5-7----|
|-5-7-7-5-7-5-7--x-x-x-|--5-7-7-5-7-5-7----|

Chorus:
|----------------------------|
|----------------------------|
|----------------------------|
|----------------------------|
|-3-5-3-0---3---3---3---2----|
|---------0-3-0-3-0-3-0-2----|

Bridge:  
|------------------|
|------------------|
|-7---5------------|
|-7---5------------|
|-5---3---10--8----|
|---------10--8----|

Outro:
|----------------------------|
|----------------------------|
|----------------------------|
|----------------------------|
|-3-5-3-0---3---3---3---2----|
|---------0-3-0-3-0-3-0-2----|

|-------------------------------|
|-------------------------------|
|-------------------------------|
|-5-5-5-5-5-5--4S5-5-5-5-5-5----|
|-3-3-3-3-3-3--2S3-3-3-3-3-3----|
|-------------------------------|

Ending:
|----------------------------|
|----------------------------|
|----------------------------|
|----------------------------|
|-3-5-3-0---3---3---3---2----|
|---------0-3-0-3-0-3-0-2----|

End.
            
Hard to play? Try these video lessons and learn fast. | Correct




comments powered by Disqus
↑ Back to top | Tablatures and chords are parodies/interpretations of the original songs. You may use it for private study, scholarship, research or language learning purposes only