>
 >
Fall To Pieces

Fall To Pieces Guitar Tabs

Velvet Revolver - Fall To Pieces chords, tabs, tablatures, lyrics

Guitar lessons | Add/correct | Request | Top 50 tabs Artists:  A B C D E F G H I J K L M N O P Q R S T U V W X Y Z 0-9

Fall To Pieces Guitar Tabs – Velvet Revolver

CD, Sheet music, Poster

Do you like Fall To Pieces? Share with your friends now
Bass TabsBass Tabs v2Bass Tabs v3Bass Tabs v4ChordsChords v2TabsTabs v2Tabs v3Tabs v4Ukulele

H - hammer
B - bend
~ - vibrate
p - pull off

eb|-3-2--------------2------------------------|
Bb|-3---3--------3-------3--------------------|
Gb|-2-----2-0----2---------2-0--------0----0--|
Db|-0---------4--0-------------4---0----------|
Ab|-------------------------------------2-----|
Eb|-------------------------------------------|

eb|-----0-----------------------------------|
Bb|-------1---------3----3--3---------3--3--|
Gb|-0-------0----0--0----0--0--0------0--0--|
Db|-2----------2----0----0-----0------0--2--|
Ab|-3---------------x----------2--3---2--3--|
Eb|-----------------3----3------------------|

Verse:
eb|-3-2----------3---2-----------------------|
Bb|-3---3--------3------3--------------------|
Gb|-2-----2-0----2--------2-0--------0----0--|
Db|-0---------4--0------------4---0----------|
Ab|------------------------------------2-----|
Eb|------------------------------------------|


eb|-1--0----------------------------------|
Bb|-1----1--------3~~-----2---------------|
Gb|-0------0---0-0~~---0-----------0--0--|
Db|-2--------2----0~~---------------0--2--|
Ab|-3-------------x~~-------3--4----2--2--|
Eb|---------------3~~---------------------|

Chorus:
eb|-----------------|-----------------|
Bb|-----------------|-----------------|
Gb|--------------7--|-----------------|
Db|-7---7----5---7--|-7---7----5---7--|
Ab|-7---7----5---5--|-7---7----5---7--|
Eb|-5---5----3------|-5---5----3---5--|

Interlude:          (Guitar 1)
eb|-15-14--------------14b15-----------------|
Bb|-------15-----------------15--------------|
Gb|----------14-12-11-----------14-12-11-----|
Db|--------------------------------------12--|
Ab|------------------------------------------|
Eb|------------------------------------------|

eb|--13-12-------------------------------|
Bb|--------13----------------------------|
Gb|-----------1210/9--------------------|
Db|--------------------10-------9h10/12--|
Ab|-------------------------10-----------|
Eb|--------------------------------------|

eb|--15-14---------------14b15--------------------|
Bb|--------15------------------15-----------------|
Gb|-----------14-12-11------------14-12-11--------|
Db|-----------------------------------------12----|
Ab|-----------------------------------------------|
Eb|-----------------------------------------------|

		(Guitar 2)
eb|-----------------|-----------------|
Bb|-----------------|-----------------|
Gb|-7---7----5------|-7---7----5------|
Db|-7---7----5---5--|-7---7----5---7--|
Ab|-5---5----3---5--|-5---5----3---7--|
Eb|--------------3--|--------------5--|

Verse:
eb|-3-2----------3---2-----------------------|
Bb|-3---3--------3------3--------------------|
Gb|-2-----2-0----2--------2-0--------0----0--|
Db|-0---------4--0------------4---0----------|
Ab|------------------------------------2-----|
Eb|------------------------------------------|


eb|-1--0----------------------------------|
Bb|-1----1--------3~~-----2---------------|
Gb|-0------0---0-0~~---0-----------0--0--|
Db|-2--------2----0~~---------------0--2--|
Ab|-3-------------x~~-------3--4----2--2--|
Eb|---------------3~~---------------------|

Chorus:
eb|-----------------|-----------------|
Bb|-----------------|-----------------|
Gb|--------------7--|-----------------|
Db|-7---7----5---7--|-7---7----5---7--|
Ab|-7---7----5---5--|-7---7----5---7--|
Eb|-5---5----3------|-5---5----3---5--|

eb|-----------------|-----------------|
Bb|-----------------|-----------------|
Gb|-7---7----5------|-7---7----5------|
Db|-7---7----5---5--|-7---7----5---7--| x2
Ab|-5---5----3---5--|-5---5----3---7--|
Eb|--------------3--|--------------5--|


Bridge: (clean)
eb|---------0----------------0-------|---------0-------------0---------|
Bb|-0---3-----3---3------3----33p2--|-0---3-----3---0---3-------3-2-3-|
Gb|---4---4-----4---4--4---4---4-----|---2---2---------2---2---2-------|
Db|----------------------------------|---------------------------------| x2
Ab|----------------------------------|---------------------------------|
Eb|----------------------------------|---------------------------------|

eb|---------0-------------0---------|---------------------------------|
Bb|-----3-----3---0---3-------3-2-3-|-----2---3-2---------2---3-2---2-|
Gb|--4---4---------4---4---4-------|---2---2-----2-----2---2-----2----|
Db|---------------------------------|-2-------------2-----------------|
Ab|---------------------------------|---------------------------------|
Eb|---------------------------------|---------------------------------|

eb|----0-------0-------------|----0-------0-------------|
Bb|-1----0--1----0---1-0-----|-1----0--1----0---1-0-----|
Gb|----------------------2-0-|----------------------2-0-|
Db|--------------------------|--------------------------|
Ab|--------------------------|--------------------------|
Eb|--------------------------|--------------------------|


Solo:
eb|------------------------------------------------------------------------|
Bb|-17b19------r17b19---17b19--17b19--17b19r17b19--15-17----15----17b19\---|
Gb|-----^hold--------------------------------------------16----------------|
Db|------------------------------------------------------------------------|
Ab|------------------------------------------------------------------------|
Eb|------------------------------------------------------------------------|
--
eb|-15b17----15-14-15------------------------------------------------------|
Bb|--------------------17b19--17b19--15---13h15p13-12-13----12h13p12-10-12-|
Gb|------------------------------------------------------------------------|
Db|------------------------------------------------------------------------|
Ab|------------------------------------------------------------------------|
Eb|------------------------------------------------------------------------|

eb|-----------------10-10-----10---------------------------------------------|
Bb|-10h12-10b12--10----12--12----10b12r10---------15----17b19-17-15-17----15-|
Gb|-----------------------------------------14-16----16----------------16----|
Db|--------------------------------------------------------------------------|
Ab|--------------------------------------------------------------------------|
Eb|--------------------------------------------------------------------------|

eb|---------------------------------------------------------------------|
Bb|----15-----20b22r20b22--20-19-20-19b20-19-------------15----17b19r17-|
Gb|-16----16---------------------------------19--19---16----16----------|
Db|--------------------------------------------19-----------------------|
Ab|---------------------------------------------------------------------|
Eb|---------------------------------------------------------------------|

eb|---------------------------------/15~~15~~-/17~~-17~~|
Bb|-15b17-17~-15b17-17~-15b17-17-15---------------------|
Gb|-----------------------------------------------------|
Db|-----------------------------------------------------|
Ab|-----------------------------------------------------|
Eb|-----------------------------------------------------|

eb|-\15-14-15-14b15r14-----14\12--10-12----10------------|
Bb|-------------------------------------12---------------|
Gb|------------------------------------------------------|
Db|------------------------------------------------------|
Ab|------------------------------------------------------|
Eb|------------------------------------------------------|


Chorus:              (Guitar 2)
eb|--15-14----------------14b15-----------------|
Bb|--------15-------------------15--------------|
Gb|-----------14-12-11-------------14-12-11-----|
Db|-----------------------------------------12--|
Ab|---------------------------------------------|
Eb|---------------------------------------------|

eb|--13-12-------------------------------|
Bb|--------13----------------------------|
Gb|-----------12---10/9------------------|
Db|---------------------10------9-10-12--|
Ab|-------------------------10-----------|
Eb|--------------------------------------|

eb|--15-14----------------14b15-----------------|
Bb|--------15-------------------15--------------|
Gb|-----------14-12-11-------------14-12-11-----|
Db|-----------------------------------------12--|
Ab|---------------------------------------------|
Eb|---------------------------------------------|

		(Guitar 1)
eb|-----------------|-----------------|
Bb|-----------------|-----------------|
Gb|-7---7----5------|-7---7----5------|
Db|-7---7----5---5--|-7---7----5---7--|
Ab|-5---5----3---5--|-5---5----3---7--|
Eb|--------------3--|--------------5--|





Comments


Popular Velvet Revolver tabs & chords
She Builds Quick Machines Bass Tabs
Slither Bass Tabs
Surrender Chords
Gravedancer 1 Tabs
Illegal I Song 1 Tabs
Let It Roll 3 Tabs
Loving The Alien 1 Tabs
Messages Intro 1 Tabs
Set Me Free 1 Tabs
She Mine 3 Tabs


Song lyrics



↑ Back to top | Tablatures and chords are parodies/interpretations of the original songs. You may use it for private study, scholarship, research or language learning purposes only
© 2014 AZChords.com Contact us | Privacy policy | DMCA | Add/correct tabs | Request tabs | Top 50 tabs