» » »

Velvet Revolver, Fall To Pieces Chords (ver.2)

Artists:  A B C D E F G H I J K L M N O P Q R S T U V W X Y Z # 

Fall To Pieces Chords (ver.2)

Velvet Revolver Tabs
 Rating:
4.6/5 (9 votes)
Fall To Pieces lessons Tabs too difficult? Try these video lessons and learn fast
                Intro    D   D  | C G5 | G5 G/B C |

         D   D   Fsus2 G5  G5 G/B C

D                    C               G5     G/B  C
It's been a long year Since you've been gone
D                   Fsus2       G5    G/B C
I've been alone here I've grown old
D               C         G5 G/B C
I fall to pieces, I'm falling 
D             Fsus2      G5  G/B  C
Fell to pieces and I'm still falling
            

          A              G5  D        G5   
Chorus      Every time I'm falling down
          A                   G5  A  G5
            All alone I fall to pieces

Link1    D   D   C G5   G5 G/B C
         D   D   C G5   G5

Verse: the same chords as last

A              G5  D        G5   
Chorus      Every time I'm falling down
          A                   G5  A  G5
            All alone I fall to pieces
          D               C      G5    G/B  C
Chorus2     Every time I'm falling down
          D                 C    G5   G/B   C
            All alone I fall to pieces
          D              C    G5     G/B  C
           Every time I'm falling down
          D                C      G5  
            All alone I fall to pieces


Bmadd11
All the years I've tried
G5
With more to go
Bmadd11
Will the memories die
G5
I'm waiting
Bmadd11
Will I find you
A
Can I find you
G5
We're falling down
-
I'm falling

Guitra solo :  D  D  C G5  G5  play x3
               E5   E5   G5 A5  A5 G5



          D               C      G5    G/B  C
Chorus2     Every time I'm falling down
          D                 C    G5   G/B   C
            All alone I fall to pieces
          D              C    G5     G/B  C
           Every time I'm falling down
          D                C      G5  
            All alone I fall to pieces



Solo:
e|------------------------------------------------------------------------|
B|-18b20------r18b20---18b20--18b20--18b20r18b20--16-18----16----18b20\---|
G|-----^hold--------------------------------------------17----------------|
D|------------------------------------------------------------------------|
A|------------------------------------------------------------------------|
E|------------------------------------------------------------------------|
--
e|-16b18----16-15-16------------------------------------------------------|
B|--------------------18b20--18b20--16---14h16p14-13-14----13h14p13-11-13-|
G|------------------------------------------------------------------------|
D|------------------------------------------------------------------------|
A|------------------------------------------------------------------------|
E|------------------------------------------------------------------------|

e|-----------------11-11-----11---------------------------------------------|
B|-11h13-11b13--11----13--13----11b13r11---------16----18b20-18-16-18----16-|
G|-----------------------------------------15-17----16----------------17----|
D|--------------------------------------------------------------------------|
A|--------------------------------------------------------------------------|
E|--------------------------------------------------------------------------|

e|---------------------------------------------------------------------|
B|----16-----21b23r21b23--21-20-21-21b20-20-------------16----18b20r18-|
G|-17----17---------------------------------20--20---17----17----------|
D|--------------------------------------------20-----------------------|
A|---------------------------------------------------------------------|
E|---------------------------------------------------------------------|

e|---------------------------------/16~~16~~-/18~~-18~~|
B|-16b18-18~-16b18-18~-16b18-18-16---------------------|
G|-----------------------------------------------------|
D|-----------------------------------------------------|
A|-----------------------------------------------------|
E|-----------------------------------------------------|

e|-\16-15-16-15b16r15-----15\13--11-13----11------------|
B|-------------------------------------13---------------|
G|------------------------------------------------------|
D|------------------------------------------------------|
A|------------------------------------------------------|
E|------------------------------------------------------|







By Ricky Freelove
            
Submit corrections

comments powered by Disqus
↑ Back to top | Velvet Revolver Chords for Fall To Pieces. Lyrics for acoustic guitar and electric guitar. Tablatures and chords are parodies/interpretations of the original songs. You may use it for private study, scholarship, research or language learning purposes only