» » »

Velvet Revolver, Fall To Pieces Bass tabs (ver.1)

Artists:  A B C D E F G H I J K L M N O P Q R S T U V W X Y Z # 

Fall To Pieces Bass tabs (ver.1)

Velvet Revolver Tabs
 Rating:
3.3/5 (14 votes)
Fall To Pieces lessons Tabs too difficult? Try these video lessons and learn fast
                -------------------------------------------------------------------------------
-------------------------------------------------------------------------------


Tuning:STANDARD  E-A-D-G

INTO
G|---------------------16-15-13-11--|
D|13p11---13p11---------------------|
A|----------------------------------|
E|----------------------------------|

G|---------------------14h15h16-15-13-------11-|
D|13p11----13p11-------------------------------|
A|---------------------------------------------|
E|---------------------------------------------|

G|---------------------16-15-13-11--------|
D|13p11----13p11--------------------------|
A|----------------------------------------|
E|----------------------------------------|

G|---------------------14h15h16-15-13-11---|
D|13p11----13p11---------------------------|
A|-----------------------------------------|
E|-----------------------------------------|

G|---------------------16-15-13-11---|
D|13p11----13p11---------------------|
A|-----------------------------------|
E|-----------------------------------|

G|--------------------14h15h16-15-13-11-10-8-6---|
D|13p11----13p11---------------------------------|
A|-----------------------------------------------|
E|-----------------------------------------------|

PRE-CHORUS
G|----------------------66666664-----|
D|6666666666666666444444---------4---|
A|-----------------------------------|
E|-----------------------------------|

G|----------------------6664---------|
D|6666666666666666444444-----6-4-----|
A|-------------------------------6-4-|
E|-----------------------------------|

CHORUS
G|-----------------------------------------------|
D|-----------------------------------------------|
A|4---4---4--4--4----0h1--2--2-------------------|
E|-----2h4---------------------0h1h2-2-0h1h2--2--|

G|-----------------4h6----------------|
D|-----------4-/-6-----4--------------|
A|4--4---4-4---------------2--2-------|
E|----2h4----------------------0h1-2--|

VERSE
G|--------------------------------------------------|
D|--------------------------------------------------|
A|4--4------2---------4--4------2---------------2---|
E|--------------2-------------------0h1-2-----------|

G|---------------------------------------------------|
D|---------------------------------------------------|
A|4--4------2---------2--4--4----2---------------2h4-|
E|---------------2------------------0h1-2--2--2h4----|

PRE-CHORUS
G|----------------------66666-4-----|
D|6666666666666666444444--------6-4-|
A|----------------------------------|
E|----------------------------------|

G|--------------------------6664-----|
D|6666666666666666444444---------6-4-|
A|----------------------44-----------| TO CHORUS 2X'S W/VARIATIONS
E|-----------------------------------|

G|---------------------------------|
D|---------------------------------|
A|---------------------------------| 2X'S
E|66666666666666662222222222222222-|

G|----------------------------------------------|
D|--------------------------------444444442-----|
A|-----------------------------------------4-2--|
E|66666666444444442222222222222222--------------|

PLAY CHORUS DURING SOLO THEN THE LAST BAR OF THE SOLO IS

G|-------------------------------------------------------|
D|----------------4444444466666666--4--------------------|
A|6666666666666666---------------------------------------|
E|-------------------------------------------------------|

BACK TO CHORUS

THERE ARE ALOT OF VARIATIONS DURING THE SONG.  THIS IS THE FIRST 
SONG I EVER TABBED AND WILL PROBABLY BE THE LAST CAUSE I DONT 
HAVE THE TIME TO DO IT.  THIS SHOULD GIVE YOU THE JIST OF THE SONG.
USE THIS AS A GUIDE AND YOU CAN ADD YOUR OWN LITTLE FILLS AND 
VARIATIONS...........ALSO ITS REALLY PLAYED TUNED DOWN 1/2 STEP BUT 
I DID IT LIKE THIS CAUSE WHEN I DID IT MY BASS WAS IN STANDARD TUNING


| /  slide up
| \  slide down
| h  hammer-on
| p  pull-off
| ~  vibrato
| +  harmonic
| x  Mute note
===============================================================================
            
Submit corrections

comments powered by Disqus
↑ Back to top | Velvet Revolver Bass for Fall To Pieces. Lyrics for acoustic guitar and electric guitar. Tablatures and chords are parodies/interpretations of the original songs. You may use it for private study, scholarship, research or language learning purposes only