>
 >
First Of Summer 3

First Of Summer 3 Guitar Tabs

Urban Dub - First Of Summer 3 chords, tabs, tablatures, lyrics

Guitar lessons | Add/correct | Request | Top 50 tabs Artists:  A B C D E F G H I J K L M N O P Q R S T U V W X Y Z 0-9

First Of Summer 3 Guitar Tabs – Urban Dub

CD, Sheet music, Poster

Do you like First Of Summer 3? Share with your friends now
Bass TabsChordsChords v2Chords v3TabsTabs v2Tabs v3Tabs v4Tabs v5Ukulele
Artist : Urbandub 
Song Title : First of Summer
Tuning : 1/2 step down and Drop D

Legend
/=Slide Up
\=Slide Down
~=Let Ring/Vibrato
x=Palm Mute Specific
h=Hammer on
p=Pull Off
^=Bend
r=Release

O eto for mainstream kiddies regalo ko senyo. Susunod na Alert the Armory ko abangan!! :D

Intro

Guitar 1

eb|------5-----5-2--|
Bb|----3-----3------|
Gb|--0-----0--------|
Db|-----------------| X2
Ab|-----------------|
Db|-----------------|

eb|------5-----5-2--|
Bb|----3-----3------|
Gb|--4-----4--------|
Db|-----------------| X2
Ab|-----------------|
Db|-----------------|

Guitar 2

eb|--------------------------5---5----|
Bb|--7---7---7---7---5---5------------|
Gb|----7---7---7---7---7---7---7---7--|
Db|-----------------------------------|
Ab|-----------------------------------|
Db|-----------------------------------|

eb|--------------------------7---7----|
Bb|-----------------------------------|
Gb|----7---7---7---7---7---7---7---7--|
Db|--9---9---9---9---9---9------------|
Ab|-----------------------------------|
Db|-----------------------------------|

Intro Chorus

Parked Car...Shine like diamonds

Guitar 1

eb|-------------------|
Bb|-------------------|
Gb|-------------------|
Db|--5-5-5-5-5-5-5-5--| X4
Ab|--5-5-5-5-5-5-5-5--|
Db|--5-5-5-5-5-5-5-5--|

Guitar 2

eb|-----------------------|
Bb|-----------------------|
Gb|-----9-9-11-11---9-11--|
Db|-5-5-x-x-x--x--x-x-x---| X2
Ab|-5-5-7-7-9--9--x-7-9---|
Db|-5-5-----------x-------|

Our Song plays on

Guitar 2

eb|--5-5-5-5-5-5-5-5--|
Bb|--x-x-x-x-x-x-x-x--|
Gb|--2-2-2-2-2-2-2-2--|
Db|-------------------| X2
Ab|-------------------|
Db|-------------------|

The Radio

Guitar 1

eb|-------------------|
Bb|-------------------|
Gb|-------------------|
Db|--9-9-9-9-9-9-9-9--| X2
Ab|--9-9-9-9-9-9-9-9--|
Db|--9-9-9-9-9-9-9-9--|

Guitar 2

Same as Guitar 1

Wo ooh

Guitar 1

eb|-------------------|
Bb|-------------------|
Gb|-------------------|
Db|--5-5-5-5-5-5-5-5--| X4
Ab|--5-5-5-5-5-5-5-5--|
Db|--5-5-5-5-5-5-5-5--|

Guitar 2

eb|------------------------|
Bb|------------------------|
Gb|-----9-9-11-11-7-7-7-7--|
Db|-5-5-x-x-x--x--x-x-x-x--| X2
Ab|-5-5-7-7-9--9--5-5-5-5--|
Db|-5-5--------------------|

Verse

We're living it up...you feel so right

Guitar 1

eb|-----|
Bb|-----|
Gb|-----|
Db|--9--| X2
Ab|--9--|
Db|--9--|

eb|-----|
Bb|-----|
Gb|-----|
Db|--5--| X2
Ab|--5--|
Db|--5--|

Guitar 2

eb|--7-7-------7------|
Bb|--7-7---7-----7----|
Gb|--7-7-7---7-----7--|
Db|-------------------|
Ab|-------------------|
Db|-------------------|

eb|--7-7-7-7-7-7-7-7--|
Bb|--7-7-7-7-7-7-7-7--|
Gb|--7-7-7-7-7-7-7-7--|
Db|--5-5-5-5-5-5-5-5--| X2
Ab|-------------------|
Db|-------------------|

eb|--7-7-7-7-7-7-7-7--|
Bb|--8-8-8-8-8-8-8-8--|
Gb|--7-7-7-7-7-7-7-7--|
Db|--5-5-5-5-5-5-5-5--|
Ab|-------------------|
Db|-------------------|

eb|--7-7-7-7-7-7-7-7--|
Bb|--7-7-7-7-7-7-7-7--|
Gb|--7-7-7-7-7-7-7-7--|
Db|--5-5-5-5-5-5-5-5--|
Ab|-------------------|
Db|-------------------|

Chorus 

Parked Car...Shine like diamonds

Same as Intro Chorus Except Guitar 2 plays the tempo differently

Our Song plays on

Guitar 1

eb|-------------------|
Bb|-------------------|
Gb|--7-7-7-7-7-7-7-7--|
Db|--7-7-7-7-7-7-7-7--|
Ab|--5-5-5-5-5-5-5-5--|
Db|-------------------|

eb|-------------------|
Bb|-------------------|
Gb|-------------------|
Db|--9-9-9-9-9-9-9-9--|
Ab|--9-9-9-9-9-9-9-9--|
Db|--9-9-9-9-9-9-9-9--|

Guitar 2

eb|-----------|
Bb|-----------|
Gb|-11-12-14--|
Db|-x--x--x---|
Ab|-9--10-12--|
Db|-----------|

eb|-------------------|
Bb|-------------------|
Gb|-------------------|
Db|--9-9-9-9-9-9-9-9--|
Ab|--9-9-9-9-9-9-9-9--|
Db|--9-9-9-9-9-9-9-9--|

The Radio

Guitar 1

eb|-------------------|
Bb|-------------------|
Gb|-------------------|
Db|--5-5-5-5-5-5-5-5--| X4
Ab|--5-5-5-5-5-5-5-5--|
Db|--5-5-5-5-5-5-5-5--|

Guitar 2

eb|------------------------|
Bb|------------------------|
Gb|-----9-9-11-11-7-7-7-7--|
Db|-5-5-x-x-x--x--x-x-x-x--| X2
Ab|-5-5-7-7-9--9--5-5-5-5--|
Db|-5-5--------------------|

Pre Verse 2

Guitar 1

eb|-----|
Bb|-----|
Gb|-----|
Db|--9--|
Ab|--9--|
Db|--9--|

eb|-----|
Bb|-----|
Gb|-----|
Db|--5--|
Ab|--5--|
Db|--5--|

Guitar 2

eb|--------|
Bb|--------|
Gb|--11-7--|
Db|--x--x--|
Ab|--9--5--|
Db|--------|

Verse 2

We're giving it up...I surrender

Guitar 1 (2nd time around only)

eb|---------------------------|
Bb|---------------------------|
Gb|--11-11-11-11-11-11-11-11--|
Db|--x--x--x--x--x--x--x--x---| X2
Ab|--9--9--9--9--9--9--9--9---|
Db|---------------------------|

eb|---------------------------|
Bb|---------------------------|
Gb|--14-14-14-14-14-14-14-14--|
Db|--x--x--x--x--x--x--x--x---|
Ab|--12-12-12-12-12-12-12-12--|
Db|---------------------------|

eb|-------------------|
Bb|-------------------|
Gb|--9-9-9-9-9-9-9-9--|
eb|--x-x-x-x-x-x-x-x--|
Bb|--7-7-7-7-7-7-7-7--|
Gb|-------------------|

Guitar 2

eb|--------------------------------------|
Bb|--------------------------------------|
Gb|--------------------------------------|
Db|--------11------11------11------11----| X2
Ab|-----------9-------9-------9-------9--|
Db|--x7-x9------x9------x9------x9-------|

Arms Raised Tonight, Arms Raised

Guitar 1

eb|---------|
Bb|---------|
Gb|---------|
Db|--5-5-7--|
Ab|--5-5-7--|
Db|--5-5-7--|

2nd time around (Play the 9th fret instead of 7th)

Guitar 2

eb|-----0-----------------------|
Bb|-------10-12-10--------------|
Gb|--11-------------11-9-9-7-6--|
Db|-----------------------------|
Ab|-----------------------------|
Db|-----------------------------|

Fill

Guitar 1

eb|-------------------|
Bb|--7-7-7-7-7-7-7-7--|
Gb|--7-7-7-7-7-7-7-7--|
Db|--7-7-7-7-7-7-7-7--| X2
Ab|--5-5-5-5-5-5-5-5--|
Db|-------------------|

eb|-------------------|
Bb|--7-7-7-7-7-7-7-7--|
Gb|--7-7-7-7-7-7-7-7--|
Db|--5-5-5-5-5-5-5-5--| X2
Ab|--5-5-5-5-5-5-5-5--|
Db|--5-5-5-5-5-5-5-5--|

eb|------------|
Bb|--5-5--5-5--|
Gb|--5-5--5-5--|
Db|--7-7--7-7--|
Ab|------------|
Db|------------|

eb|-------------------|
Bb|--5-5-5-5-5-5-5-5--|
Gb|--5-5-5-5-5-5-5-5--|
Db|--7-7-7-7-7-7-7-7--|
Ab|-------------------|
Db|-------------------|

Guitar 2

eb|------------------------|
Bb|------------------------|
Gb|--14-12-11-9-9\7-7-9-7--|
Db|--x--x--x--x-x-x-x-x-x--|
Ab|--12-10-9--7-7\5-5-7-5--|
Db|------------------------|

eb|------------------------------------------------|
Bb|------------------------------------------------|
Gb|--------5-4-----------5-4---------5-4-----------|
eb|--------------7------------------------------9--|
Bb|------------9-------------9-----------9-10-9----|
Gb|--x7-x9---------x7-x9-------x7-x9---------------|

Bridge

Drive me away...Anywhere with you

Guitar 1

eb|-----------|
Bb|-----------|
Gb|-----------|
Db|--5-5-9-7--| X2
Ab|--5-5-9-7--|
Db|--5-5-9-7--|

Guitar 2

Intro Plucking in a more subtle manner

Pre Finale

Parked car this night sky...Shine like diamonds

Guitar 1

eb|-----|
Bb|-----|
Gb|-----|
Db|--5--| 8th note repetition
Ab|--5--|
Db|--5--|

Guitar 2

eb|-----|
Bb|-----|
Gb|-----|
Db|--5--| Whole note repetition and up down slide before entering Finale Chorus
Ab|--5--|
Db|--5--|

Finale Chorus

Our song plays on...

Guitar 1

eb|-------|
Bb|-------|
Gb|-------|
Db|--0-5--| Repeat to Fade
Ab|--0-5--|
Db|--0-5--|

Guitar 2

1st lick

eb|------------------------------------|
Bb|------------------------------------|
Gb|--14\12-12\11-11\9-9/12-12\11-11\9--|
Db|--x-\x--x-\x--x-\x-x/x--x-\x--x-\x--|
Ab|--12\10-10\9--9-\7-7/10-10\9--9-\7--|
Db|------------------------------------|

2nd lick 

eb|---------------------------|
Bb|---------------------------|
Gb|--14-11-11-12-7-12-11-9-7--|
Db|--x--x--x--x--x-x--x--x-x--| X3
Ab|--12-9--9--10-5-10-9--7-5--|
Db|---------------------------|

3rd lick

eb|---------------------------------------|
Bb|--15-15-15----------14-14-14-----------|
Gb|-----------11-12-11--------------------|
Db|-----------------------------11-12-11--| Repeat to Fade
Ab|---------------------------------------|
Db|---------------------------------------|





Comments


Popular Urban Dub tabs & chords
Endless A Silent Whisper 2 Bass Tabs
Endless A Silent Whisper Chords
Gravity Chords
We Kept It Hidden 1 Chords
Come Tabs
Soul Searching Tabs
Under Crisis Tabs
Alert The Armory Ukulele
Face In The Woods Ukulele
Safety In Numbers Ukulele


Song lyrics



↑ Back to top | Tablatures and chords are parodies/interpretations of the original songs. You may use it for private study, scholarship, research or language learning purposes only
© 2014 AZChords.com Contact us | Privacy policy | DMCA | Add/correct tabs | Request tabs | Top 50 tabs