» » »

Urban Dub, First Of Summer Tabs (ver.3)

Artists:  A B C D E F G H I J K L M N O P Q R S T U V W X Y Z # 

First Of Summer Tabs (ver.3)

Urban Dub Tabs
 Rating:
3.7/5 (6 votes)
First Of Summer lessons Tabs too difficult? Try these video lessons and learn fast
                ----------------------------------------------------------------------------
                             first of summer - urbandub
----------------------------------------------------------------------------

my girl,, KAT, just bought their album yesterday and I borrowed it and tabbed
this song for her. I’ve seen this band played this song live wen they visited
our skuL. They were like 4 meters from where I am and I can clearly see what
their fingers were doing on their guitars with this song, amazing man!! THE
SAD PART IS, I didn’t know the song until the other day, so result is, I just
can’t remember how they play it correctly. I just remember Gab placed his finger
on the 5th or 6th fret of the 2nd and 3rd strings during the intro.

now,, the tab. hehe. I don’t know if this is accurate but if you listen to it,
its pretty close. I wud like to ask a question guyz, do they use alternative
tuning for the album? I suspect Db Ab Db Gb Bb eb. Im not really sure, if only
ive known this song before they played it live(in front of me, naahh!), it would
have answered all my questions.. put*ngina, nakakainis talaga.. GRRRRRRRR…. kung
alam nio lng yung frustrations ko.. RATE PLSS…!!


Tuning: standard
intro:
I didn’t bother to dissect the two guitars because the sound
was just vague for my ear…
Gab uses clean guitar here while John uses some delay, but again, i
didn’t separate the two guitars. here it is!! have fun

do this thing twice..hehe..cool bit
e|----------------4---4-----------------------------------------------------|
B|--6-6-6-6--4-4-----------2-2-2-2-2-2---4----------------------------------|
G|---6-6-6-6--6-6---6---6---3-3-3-3-3-3--6-let ring-------------------------|
D|--------------------------------------------------------------------------|
A|--------------------------------------------------------------------------|
E|--------------------------------------------------------------------------|

or try this one.. both sounds ok, pick your choice!!
e|--------------------------------------------------------------------------|
B|--6-6-6-6--6-6--9-9----------------6-6------------------------------------|
G|---6-6-6-6--8-8--6-6--6-6-6-6-6-6---8-8-----------------------------------|
D|-----------------------8-8-8-8-8-8----------------------------------------|
A|---------—---—------------------------------------------------------------|
E|--------------------------------------------------------------------------|


well, this is the cool bass part in the intro and I
just included it because of… wla lang..
this is played after the first time you have done the above riff.
e|--------------------------------------------------------------------------|
B|--------------------------------------------------------------------------|
G|--------------------------------------------------------------------------|
D|--------------------------------------------------------------------------|
A|---44--6--8--6—-44--6—-8--6---1-1--3-4-3---1-1--3-4-3---------------------|
E|--------------------------------------------------------------------------|

start of the verse:
guitar one: yeah ryt its all 244, figure out the strumming
pattern I myt be wrong…hehe. remember, that is a chord.. wahwahwhahahahaha!!
Gab sings “Parked car this night sky…”
e|--------------------------------------------------------------------------|
B|--------------------------------------------------------------------------|
G|--------------------------------------------------------------------------|
D|--4-----------------------------------------------------------------------|
A|--4-x32-------------------------------------------------------------------|
E|--2-----------------------------------------------------------------------|

guitar2 John
listen to the song for the number of times youll gonna
play this..hehe..minsan pasulpot-sulpot tong part na to
bweeeeeset.!!
e|--------------------------------------------------------------------------|
B|--------------------------------------------------------------------------|
G|-------88--1010-88------66--88--1010-88-----------------------------------|
D|--44---xx—-x-x--xx--or--xx--xx—-x-x--xx-----------------------------------|
A|--44---66—-8-8--66------44--66—-8-8--66-----------------------------------|
E|--22----------------------------------------------------------------------|

guitar one: GAB
                          (not sure with the strumming pattern)
“our song plays on the”   “radio…ohh ohh ohhh ohhh ohhh..”
e|----------------------[---------------------------------------------------|
B|----------------------[---------------------------------------------------|
G|----pause-------------[---------------------------------------------------|
D|----------------------[-4------------6~-just listen to the----------------|
A|----------------------[-4 x40—then---6~-song and youll know --------------|
E|----------------------[-2------------4~-wat I mean------------------------|

guitar2 John
listen to the song for the number of times youll gonna
play this..hehe..minsan pasulpot-sulpot tong part na to
bweeeeeset.!!
“radio…ohh ohh ohh ohh ohh ohh...”
e|--------------------------------------------------------------------------|
B|--------------------------------------------------------------------------|
G|-------88--1010-88------66--88--1010-88-----------------------------------|
D|--44---xx—-x-x--xx--or--xx--xx—-x-x--xx-----------------------------------|
A|--44---66—-8-8--66------44--66—-8-8--66-----------------------------------|
E|--22----------------------------------------------------------------------|

the verse part: verse ba tlaga to? pg urbandub talaga
magulo kung anu ang verse sa chorus..hehehehehehehe!!
clean guitar= Gab, Delayed guitar= John
again I didn’t separate both guitars, mahina kc eh..
“WER livin it up..”
e|--------------------------------------------------------------------------|
B|-6----66-------6-----7----6-----------------------------------------------|
G|-6----66--then-6-x16-6-x8-6-x8--------------------------------------------|
D|--------------------------------------------------------------------------|
A|--------------------------------------------------------------------------|
E|--------------------------------------------------------------------------|


CHORUS:
then back to chorus daw.. guitar one
“parked car this night sky..”
e|--------------------------------------------------------------------------|
B|--------------------------------------------------------------------------|
G|--------------------------------------------------------------------------|
D|--4-----------------------------------------------------------------------|
A|--4-x32-------------------------------------------------------------------|
E|--2-----------------------------------------------------------------------|

guitar2 John
listen to the song for the number of times youll gonna
play this..hehe..minsan pasulpot-sulpot tong part na to
bweeeeeset.!!
e|--------------------------------------------------------------------------|
B|--------------------------------------------------------------------------|
G|-------88--1010-88------66--88--1010-88-----------------------------------|
D|--44---xx—-x-x--xx--or--xx--xx—-x-x--xx-----------------------------------|
A|--44---66—-8-8--66------44--66—-8-8--66-----------------------------------|
E|--22----------------------------------------------------------------------|

these are chords mga dude!!
“our song plays on the”    “radiooo.. ohh ohh ohh ohh ohh…”
e|------------------[-------------------------------------------------------|
B|------------------[-------------------------------------------------------|
G|-6----------------[-------------------------------------------------------|
D|-6—---X16 --------[--4----------------8~----------4~----------------------|
A|-4----------------[--4-X40------------8~-let ring-4~-let ring-------------|
E|------------------[--2----------then—-6~----------2~----------------------|

ok.. another cool part of the verse daw…
palm muted/muffled part guyz
e|--------------------------------------------------------------------------|
B|--------------------------------------------------------------------------|
G|------5-3---5-3----5-3---5-3----5-3---5-3----5-3---5-3--------------------|
D|--33------3-----33-----3-----33-----3-----33-----3------------------------|
A|--------------------------------------------------------------------------|
E|--------------------------------------------------------------------------|
    ..  . . . . . .. . . . . . .. . . . . . .. . . . . .

e|----------6---------------------------------------------------------------|
B|--6---9-----9--6-------6--6-----------------------------------------------|
G|---6----6---------8-----6---5~~-------------------------------------------|
D|--------------------------------------------------------------------------|
A|--------------------------------------------------------------------------|
E|--------------------------------------------------------------------------|

then the part na magulo pa rin
guitar one:GAB
e|--------------------------------------------------------------------------|
B|--------------------------------------------------------------------------|
G|-6-------------6----------------------------------------------------------|
D|-6-x16--4------6-x16-4----------------------------------------------------|
A|-4------4-x16--4-----4-x16------------------------------------------------|
E|--------2------------2----------------------------------------------------|

guitar 2 parts: John
e|---------------------------------------------------------------------------|
B|---------------------------------------------------------------------------|
G|-6------13-13--11-11-8-66----83--------------------------------------------|
D|-6-x12---x--x--x--x--x--xx----x-x------------------------------------------|
A|-4------11-11--9--9—-6-44----61--------------------------------------------|
E|---------------------------------------------------------------------------|


then the heavy part
use heavy palm muting
e|--------------------------------------------------------------------------|
B|--------------------------------------------------------------------------|
G|--------------------------------------------------------------------------|
D|-88-11-10-6-8~-88-11-10-6~~-88-11-10-3-4-3-8~~----------------------------|
A|-88------------88-----------88--------------------------------------------|
E|-66------------66-----------66--------------------------------------------|
   ..            ..           ..

then “ohh ohh ohh ohh ohh ohh ohh..”
e|--------------------------------------------------------------------------|
B|--------------------------------------------------------------------------|
G|--------------------------------------------------------------------------|
D|-4~~----8~~--6~~----------------------------------------------------------|
A|-4~~----8~~--6~~----------------------------------------------------------|
E|-2~~----6~~--4~~----------------------------------------------------------|

“our song plays on.....”
figure out the stumming pattern yourself, paulit ulit
lang yan hanggang end of the song
guitar one: GAB
e|--------------------------------------------------------------------------|
B|--------------------------------------------------------------------------|
G|-6~~----------------------------------------------------------------------|
D|-6~~-4~~------------------------------------------------------------------|
A|-4~~-4~~------------------------------------------------------------------|
E|-----2~~------------------------------------------------------------------|

guitar 2
listen to the song…. paulit ulit lang yan haggang matapos
e|--------------------------------------------------------------------------|
B|--------------------------------------------------------------------------|
G|-6~~--13----11----10-----8-----11---10----8-------------------------------|
D|-6~~--x—x4--x—x4--x--x4--x-x4--x-x4-x-x4--x-x4----------------------------|
A|-4~~--11----9-----8------6-----9----8-----6-------------------------------|
E|--------------------------------------------------------------------------|

that’s it…. ingat mga tol
LUVU KAT
            
Submit corrections

comments powered by Disqus
↑ Back to top | Urban Dub Tabs for First Of Summer. Lyrics for acoustic guitar and electric guitar. Tablatures and chords are parodies/interpretations of the original songs. You may use it for private study, scholarship, research or language learning purposes only