» » »

Urban Dub, First Of Summer Chords (ver.3)

Artists:  A B C D E F G H I J K L M N O P Q R S T U V W X Y Z # 

First Of Summer Chords (ver.3)

Urban Dub Tabs
 Rating:
4/5 (4 votes)
First Of Summer lessons Tabs too difficult? Try these video lessons and learn fast
1
                Urbandub
First Of Summer
2005

Key: C#

Tuning: Standard EADGBe

Chords used:
C# -  x46664
Ab -  466544
Bbm - x13321
F# -  244322

Intro:

Guitar Plucking

Bass Solo:
G|-6-6-8--10--6-6-8--10-10-|-3-3-5--6--3-3-5--6-|
D|-------------------------|--------------------|
A|-------------------------|--------------------|
E|-------------------------|--------------------|


Chorus 1:
F#
  Parked car
This night sky
Makes city lights
shine like diamonds
C#(hold)
our song plays on the
Bbm              F#
radio wooh-oh-oh-oh-oh
wooh-oh-oh-oh-oh


verse 1
Bbm
   We’re living it up
Make this night ours
We own the world
                     F#
I wish this lasts forever
Alone with you tonight
Further in you feels so right


Chorus 2:
F#
  Parked car
This night sky
Makes city lights
shine like diamonds
C#       Bbm
our song plays
       F#
on the radio


Breakdown: 3/4 beat
Bbm--F#--(hold)


Verse 2: Bass Solo
Bbm                Ab
   We're giving it up
and just a little more
Bbm
   This heartfelt
F#
leap I surrender
     F#
With arms raised
              Ab
tonight (Arms raised)
Bbm                Ab
   We're giving it up
and just a little more
Bbm
   This heartfelt
F#
leap I surrender
     F#
With arms raised
       Bbm
tonight


Bass Solo: Verse 2
G|-----6-5---------|-----6-5-------|---------------------|
D|---3-----3-3-4-6-|---3-----3-3-4-|---------------------|
A|-1---------------|-1-------------|---------------------|
E|-----------------|---------------|-2-2-2-2--2-2-2-2--4-|

G|-----6-5---------|-----6-5-------|---------------------|
D|---3-----3-3-4-6-|---3-----3-3-4-|---------------------|
A|-1---------------|-1-------------|-------------------1-|
E|-----------------|---------------|-2-2-2-2--2-2-2-2----|


Interlude: C#--F#--Bbm(hold)-Bbm(hold)-Bbm---


Bridge:
F#
  (Whooh oh)
(Anywhere with you)
F#
  (Whooh oh)(Whooh oh)
(Anywhere with you)
Bbm          Ab
   (Whooh oh)(Whooh oh)
(Anywhere with you)
F#
  Drive me away
cuz the night
just feels right

take me away
           Bbm
with you tonight
   Ab         F#
anywhere with you
  Drive me away
cuz the night
just feels right

take me away
           Bbm
with you tonight
   Ab         F#
anywhere with you


Chorus 3:
F#
  Parked car
This night sky
Makes city lights
shine like diamonds
C#
Our song plays on
F#
Our song plays on
C#
Our song plays on
F#
Our song plays on
C#
Our song plays on
F#
Our song plays on
C#
Our song plays on
F#
Our song plays on
C#
Our song plays on
F#
Our song plays on
C#
Our song plays on
F#
Our song plays on
C#
Our song plays on
F#
Our song plays on
C#
Our song plays on
F#
Our song plays on


(park car in night  sky,
Alone with you tonight)
            
Submit corrections

comments powered by Disqus
↑ Back to top | Urban Dub Chords for First Of Summer. Lyrics for acoustic guitar and electric guitar. 1 Tablatures and chords are parodies/interpretations of the original songs. You may use it for private study, scholarship, research or language learning purposes only