» » »

First Of Summer Tabs (ver.2)

Artists:  A B C D E F G H I J K L M N O P Q R S T U V W X Y Z # 

First Of Summer Tabs (ver.2)

Urban Dub
Rating:
4/5 (24 votes)

Tabs too difficult? Try these video lessons and learn fast.
                
it's my first time to tab a song as good as this so you may encounter some "rookieness" in the tab...

Tuning: E A D G B e

(INTRO)
GTR. 2                  GTR. 1               
|-----4----|            |--------|            
|-6--------|            |-6------|            
|---6---6--|(16x)       |---6----|(8x)            
|----------|            |--------|            
|----------|            |--------|             
|----------|            |--------|                    

(CHORUS 1)
GTR.2
|---------------------------------------------------------|
|---------------------------------------------------------|
|---------------------------------------------------------|
|-4-4-4-4-4-4-4-4-4-4-4-4-4-4-4-4-4-4-4-4-4-4-4-4-4-4-4-4-|
|-4-4-4-4-4-4-4-4-4-4-4-4-4-4-4-4-4-4-4-4-4-4-4-4-4-4-4-4-|
|-2-2-2-2-2-2-2-2-2-2-2-2-2-2-2-2-2-2-2-2-2-2-2-2-2-2-2-2-|
  Parked car, this night sky............. Like Diamonds

GTR.1
|------------------------------------------------------|
|------------------------------------------------------|
|-6-6--8--10----6-6--8--10----6-6--8--10----6-6--8--10-|
|-x-x--x--x-----x-x--x--x-----x-x--x--x-----x-x--x--x--|
|-4-4--6--8-----4-4--6--8-----4-4--6--8-----4-4--6--8--|
|------------------------------------------------------|
  Parked car, this night sky............. Like Diamonds

GTR.2
|---------------------------------|
|---------------------------------|
|---------------------------------|
|-4-4-4-4-4-4-4-4-4-4-4-4-4-4-4-4-|
|-4-4-4-4-4-4-4-4-4-4-4-4-4-4-4-4-|
|-2-2-2-2-2-2-2-2-2-2-2-2-2-2-2-2-|
  the radio...

GTR. 1
|-------------------------------|
|-------------------------------|
|-6-6--8--10-6----6-6--8--10-6--|
|-x-x--x--x--x----x-x--x--x--x--|
|-4-4--6--8--4----4-4--6--8--4--|
|-------------------------------|
  Wo oh oh ooh.........



(STANZA)
GTR.1
|----------------| 
|----------------|
|-3--------------|
|-3--------------|
|-1--------------|
|----------------|
 We're livin' it up...

|----------------|
|----------------|
|-3--------------|
|-3--------------|
|-1--------------|
|----------------|
 We own the world...

|----------------| 
|----------------|
|----------------|
|-4--------------|
|-4--------------|
|-2--------------|
 Alone with you tonight...

|----------------| 
|----------------|
|----------------|
|-4--------------|
|-4--------------|
|-2--------------|
 Further with you...

(CHORUS 2)

GTR.2
|---------------------------------------------------------|
|---------------------------------------------------------|
|---------------------------------------------------------|
|-4-4-4-4-4-4-4-4-4-4-4-4-4-4-4-4-4-4-4-4-4-4-4-4-4-4-4-4-|
|-4-4-4-4-4-4-4-4-4-4-4-4-4-4-4-4-4-4-4-4-4-4-4-4-4-4-4-4-|
|-2-2-2-2-2-2-2-2-2-2-2-2-2-2-2-2-2-2-2-2-2-2-2-2-2-2-2-2-|
  Parked car, this night sky............. Like Diamonds

GTR.1
|------------------------------------------------------|
|------------------------------------------------------|
|-6-6--8--10----6-6--8--10----6-6--8--10----6-6--8--10-|
|-x-x--x--x-----x-x--x--x-----x-x--x--x-----x-x--x--x--|
|-4-4--6--8-----4-4--6--8-----4-4--6--8-----4-4--6--8--|
|------------------------------------------------------|
  Parked car, this night sky............. Like Diamonds

Both guitars
|--------------------------------------------------------------------|
|--------------------------------------------------------------------|
|-6-6-6-6-6-6-6-6-3-3-3-3-3-3-3-3-3----------------------------------|
|-6-6-6-6-6-6-6-6-3-3-3-3-3-3-3-3-3-4-4-4-4-4-4-4-4-4-4-4-4-4-4-4-4--|
|-4-4-4-4-4-4-4-4-1-1-1-1-1-1-1-1-1-4-4-4-4-4-4-4-4-4-4-4-4-4-4-4-4--|
|-----------------------------------2-2-2-2-2-2-2-2-2-2-2-2-2-2-2-2--|
 Our song...      Plays on....      The radio


GTR. 1
|-------------------------------|
|-------------------------------|
|-6-6--8--10-6----6-6--8--10-6--|
|-x-x--x--x--x----x-x--x--x--x--|
|-4-4--6--8--4----4-4--6--8--4--|
|-------------------------------|

(STANZA 2)

GTR.2
|-----------------| 
|-----------------|
|-3---------------|
|-3--4------------|
|-1--4------------|
|----2------------|

GTR.1
|-----------------------------------------------------------------|
|-----1------1--------1------1--------1------1--------1------1----|
|-3-3---3--3---3--3-3---3--3---3--3-3---3--3---3--3-3---3--3---3--|
|-3-3------3------3-3------3------3-3------3------3-3------3------|
|-1-1------1------1-1------1------1-1------1------1-1------1------|
|-----------------------------------------------------------------|
  * *      *      * *      *      * *      *      * *      *
 We're givin' it up....

GTR.2
|---------------------------------|
|---------------------------------|
|---------------------------------|
|-4--------------------4---6------|
|-4--------------------4---6------|
|-2--------------------2---4------|
 Arms raised tonight (arms raised)


GTR.1
|-----4---6-4-----4------------|
|---4---4-----4--------4-------|
|-6-------------6----6---6-5---|
|------------------------------|
|------------------------------|
|------------------------------|
 Arms raised tonight 


GTR.1
|-----------------------------------------------------------------|
|-----1------1--------1------1--------1------1--------1------1----|
|-3-3---3--3---3--3-3---3--3---3--3-3---3--3---3--3-3---3--3---3--|
|-3-3------3------3-3------3------3-3------3------3-3------3------|
|-1-1------1------1-1------1------1-1------1------1-1------1------|
|-----------------------------------------------------------------|
  * *      *      * *      *      * *      *      * *      *
 We're givin' it up....

GTR.2
|-1-1-1-1-1-1-1-1-1-1-1-1-1-1-1-1-4-4-4-4-4-4-4-4-----------------|
|-------------------------------------------------4-4-4-4-4-4-4-4-|
|-----------------------------------------------------------------|
|-----------------------------------------------------------------|
|-----------------------------------------------------------------|
|-----------------------------------------------------------------|
 We're givin' it up....

GTR.2
|---------------------------------|
|---------------------------------|
|---------------------------------|
|-4--------------------4---6------|
|-4--------------------4---6------|
|-2--------------------2---4------|
 Arms raised tonight 


GTR.1
|-----4---6-4-----4------------|
|---4---4-----4--------4-------|
|-6-------------6----6---6-5---|
|------------------------------|
|------------------------------|
|------------------------------|
 Arms raised tonight 

GTR.2
|-----------------------------------------------------------------|
|-----------------------------------------------------------------|
|-6-6-6-6-6-6-6-6-6-6-6-6-6-6-6-6---------------------------------|
|-6-6-6-6-6-6-6-6-6-6-6-6-6-6-6-6-4-4-4-4-4-4-4-4-4-4-4-4-4-4-4-4-|
|-4-4-4-4-4-4-4-4-4-4-4-4-4-4-4-4-4-4-4-4-4-4-4-4-4-4-4-4-4-4-4-4-|
|---------------------------------2-2-2-2-2-2-2-2-2-2-2-2-2-2-2-2-|

GTR.1
|-4-2-1--------|
|-------4-2----|
|--------------|
|--------------|
|--------------|
|--------------|


GTR.2       GTR.1     
|------|   |----------|
|------|   |----------|
|-3-3--|   |-6-5------|
|-3-3--|   |-----3-6--|
|-1-1--|   |----------|
|------|   |----------|

GTR.2       GTR.1     
|------|   |---------|
|------|   |---------|
|-3-3--|   |-6-5-----|
|-3-3--|   |-----3---|
|-1-1--|   |---------|
|------|   |---------|

GTR.2
|---------------------------------|
|---------------------------------|
|-3-3-3-3-3-3-3-3-3-3-3-3-3-3-3-3-|
|-3-3-3-3-3-3-3-3-3-3-3-3-3-3-3-3-|
|-1-1-1-1-1-1-1-1-1-1-1-1-1-1-1-1-|
|---------------------------------|

GTR.1     
|--------------|
|--------------|
|-6-5-------3--|
|-----3-4-3----|
|--------------|
|--------------|

GTR.1 & 2
|-----------------------------------------------|
|-----------------------------------------------|
|-------------------------------3---------------|
|-4-------------4---------------3-------6-------|
|-4-------------4---------------1-------6-------|
|-2-------------2-----------------------4-------|
  Wo oh ooh     Wo oh ooh       Wo oh   Wo ooh

Both guitars
|-----------------------------------------------|          
|-----------------------------------------------|
|--------------------------------3--------------| 
|-4-------------4----------------3------6-------| (2x)
|-4-------------4----------------1------6-------|
|-2-------------2-----------------------4-------|
  Drive me...   Feels right..      Anywhere..  With you..

Both guitars
|------------------------------------------------| 
|------------------------------------------------|
|------------------------------------------------|
|-4---------------4---------------4--------------|
|-4---------------4---------------4--------------|
|-2---------------2---------------2--------------|
 Parked car...    Parked car...   Makes city lights...


                                                   
|--------------------------------------------------|         
|--------------------------------------------------|     (I can't get the
|-6------------------------------------------------| 2x   last lead part)
|-6-------------------------4----------------------|          
|-4-------------------------4----------------------|
|---------------------------2----------------------|
  Our song plays on.....    Our song plays on....



|--------------------------------------------------|
|--------------------------------------------------|
|-6------------------------------------------------| play til song fades..
|-6-------------------------4----------------------|
|-4-------------------------4----------------------|
|---------------------------2----------------------|
  Parked car....             Alone with you tonight....
            
Tabs too difficult? Try these video lessons and learn fast.




comments powered by Disqus
↑ Back to top | Tablatures and chords are parodies/interpretations of the original songs. You may use it for private study, scholarship, research or language learning purposes only