>
 >
Evidence 1

Evidence 1 Guitar Tabs

Urban Dub - Evidence 1 chords, tabs, tablatures, lyrics

Guitar lessons | Add/correct | Request | Top 50 tabs Artists:  A B C D E F G H I J K L M N O P Q R S T U V W X Y Z 0-9

Evidence 1 Guitar Tabs – Urban Dub

CD, Sheet music, Poster

Do you like Evidence 1? Share with your friends now
Bass TabsChordsChords v2TabsTabs v2Tabs v3Tabs v4Ukulele

Tuning	 :  Standard
Legend	 :  / - slide
	    h - hammer on
	    p - pull off
	    b - bend
	    x - mute
            ~ - let note ring
            cont. - continue and timing
           [1] - Guitar 1 *Rhythm*
           [2] - Guitar 2 *Lead*

Please do not copy this tab and post it as yours, I worked hard to get this tab



Intro
[1] only         Time has a way of healing...
    EbM7        F#m
e|---x------------------------------------------|
B|---8------------------------------------------|
G|---7-----------11-----------------------------|
D|---8-----------11-----------------------------|
A|---6-----------9------------------------------|
E|----------------------------------------------|


Verse
[1]
    EbM7        F#m       EbM7
e|---x---------------------x--------------------|
B|---8---------------------8--------------------|
G|---7-----------11--------7--------------------|
D|---8-----------11--------8--------------------|
A|---6-----------9---------6--------------------|
E|----------------------------------------------|
Note: Listen to this part *I find there's no real place for me to hide* 
      break from F#m to EbM7

[2]
    EbM7        F#m       EbM7
e|---x---------------------x--------------------|
B|---8---------------------8--------------------|
G|---7-----------11--------7--------------------|
D|---8-----------11--------8--------------------|
A|---6-----------9---------6--------------------|
E|----------------------------------------------|

Refrain
[1]
    Cm         EbM7
e|---x----------x-------------------------------|
B|---3----------8-------------------------------|
G|---5----------7-------------------------------| (2x)
D|---5----------8-------------------------------|
A|---3----------6-------------------------------|
E|----------------------------------------------|

[2]
e|----------------------------------------------|
B|-----8--8--8--8--8--8--8-------6-6-6-6-6-6-6--|
G|----8--8--8--8--8--8--8--8--------------------| (2x)
D|----------------------------------------------|
A|----------------------------------------------|
E|----------------------------------------------|
Note: Listen to the song to get the timing for this lead...

Chorus
[1]
      BbM7  EbM7  Cm EbM7          
e|----------x---------x-------------------------|
B|----------8---------8-------------------------|
G|-----7----7----5----7-------------------------| (2x)
D|-----7----8----5----8-------------------------|
A|-----8----6----3----6-------------------------|
E|-----6----------------------------------------|

[2]
e|--8~-----8~-----8~-----8~-----8~-----8~-----6~----6~----6~----6~------|
B|----6------6------6------6------6------6------6-----6-----6-----6-----|
G|------7------7------7------7------7------7------7-----7-----7-----7---| (2x)
D|----------------------------------------------------------------------|
A|----------------------------------------------------------------------|
E|----------------------------------------------------------------------|
Note: Listen to this part in order to get the perfect timing...


Adlib 1
[1]
     EbM7                F#m           
e|----x-----------------------------------------|
B|----8-------------------10--------------------|
G|----7-------------------11--------------------|
D|----8-------------------11--------------------|
A|----6-------------------9---------------------|
E|----------------------------------------------|


Verse 2
[1]
    EbM7   Cm    EbM7   Cm         
e|---x------------x-----------------------------|
B|---8------------8-----------------------------|
G|---7-----5------7------5----------------------|
D|---8-----5------8------5----------------------|
A|---6-----3------6------3----------------------|
E|----------------------------------------------|

[2]
e|----------------------------------------------|------11-10------11-10------11-10------8-10---|
B|----------------------------------------------|-8-11-------8-11-------8-11-------8-11--------|
G|--------8-7------8-7------8-7------8-7--------|----------------------------------------------|
D|---8-10-----8-10-----8-10-----8-10------------|----------------------------------------------|
A|----------------------------------------------|----------------------------------------------|
E|----------------------------------------------|----------------------------------------------|

(Repeat Chorus)

Bridge
[1]
   Gm       Bb      EbM7      
e|--x--------x-------x--------------------------|
B|--x--------x-------8--------------------------|
G|--x--------7-------7--------------------------|
D|--5--------8-------8--------------------------|
A|--5--------8-------6--------------------------|
E|--3--------6----------------------------------|

[2]
e|----------------8h10--------------------------|
B|---------6cont.------6cont.(break)/8----------|
G|--7cont.--------------------------------------| (2x)
D|----------------------------------------------|
A|----------------------------------------------|
E|----------------------------------------------|
Note: Just listen to the song while doing this part...


Adlib 2
[1]
    EbM7   F#m    EbM7  
e|---x-------------x----------------------------|
B|---8-------------8----------------------------|
G|---7-------------7----------------------------|
D|---8------4------8----------------------------|
A|---6------4------6----------------------------|
E|----------2-----------------------------------|

[2]
e|-----------------------------------------------------------------------------|
B|-----------------------------------------------------------------------------|
G|--5/7-5--3/5-3-----3h5-5/7-5p3-5-3----3~-5~-3~---------3---------------------|
D|---------------3h5-----------------5---------------3h5---5--11h14-11-12-11---|
A|-----------------------------------------------3h5---------------------------|
E|-----------------------------------------------------------------------------|


Refrain
[1]
    Cm         EbM7
e|---x----------x-------------------------------|
B|---3----------8-------------------------------|
G|---5----------7-------------------------------| (2x)
D|---5----------8-------------------------------|
A|---3----------6-------------------------------|
E|----------------------------------------------|

[2]
e|----------------------------------------------|
B|----------------------6666666666666-----------|
G|---8888888888888------------------------------| (2x)
D|----------------------------------------------|
A|----------------------------------------------|
E|----------------------------------------------|


Interlude
[2]
e|---10-----10-----10-----10--------13-----13-----13-----13---------|
B|-----11-----11-----11-----11---11---11-----11-----11-----11---11--|
G|-------12-----12-----12-----12--------12-----12-----12-----12-----| (2x)
D|------------------------------------------------------------------|
A|------------------------------------------------------------------|
E|------------------------------------------------------------------|


Chorus
[1]
      BbM7  EbM7  Cm EbM7          
e|----------x---------x-------------------------|
B|----------8---------8-------------------------|
G|-----7----7----5----7-------------------------| (2x)
D|-----7----8----5----8-------------------------|
A|-----8----6----3----6-------------------------|
E|-----6----------------------------------------|

[2]
e|--8~-----8~-----8~-----8~-----8~-----8~-----6~----6~----6~----6~------|
B|----6------6------6------6------6------6------6-----6-----6-----6-----|
G|------7------7------7------7------7------7------7-----7-----7-----7---| (2x)
D|----------------------------------------------------------------------|
A|----------------------------------------------------------------------|
E|----------------------------------------------------------------------|
Note: Still listen to this part in order to get the perfect timing...

Outro
[1]                          Caught you in the arms of another....I found out about you
      BbM7  EbM7  Cm EbM7          
e|----------x---------x-------------------------|
B|----------8---------8-------------------------|
G|-----7----7----5----7-------------------------| (2x)
D|-----7----8----5----8-------------------------|
A|-----8----6----3----6-------------------------|
E|-----6----------------------------------------|


[2]
e|----------------------------------------------|
B|----------------------------------------------|
G|--------8-7------8-7------8-7------8-7--------|
D|---8-10-----8-10-----8-10-----8-10------------|
A|----------------------------------------------|
E|----------------------------------------------|


e|------11-10------11-10------11-10------11-10------8-10--|
B|-8-11-------8-11-------8-11-------8-11-------8-11-------|
G|--------------------------------------------------------|
D|--------------------------------------------------------|
A|--------------------------------------------------------|
E|--------------------------------------------------------|

Enjoy!!!
Hope you'll like it...

[Rastahflip D' Arsonist]
\m/_\m/





Comments


Popular Urban Dub tabs & chords
Frailty Bass Tabs
Cebuana Chords
Guillotine Chords
Safety In Numbers Chords
Come 1 Tabs
Endless A Silent Whisper 1 Tabs
Mula Tabs
Soul Searching 2 Tabs
A Call To Arms Ukulele
First Of Summer Ukulele


Song lyrics



↑ Back to top | Tablatures and chords are parodies/interpretations of the original songs. You may use it for private study, scholarship, research or language learning purposes only
© 2014 AZChords.com Contact us | Privacy policy | DMCA | Add/correct tabs | Request tabs | Top 50 tabs