» » »

Urban Dub, Evidence Tabs (ver.3)

Artists:  A B C D E F G H I J K L M N O P Q R S T U V W X Y Z # 

Evidence Tabs (ver.3)

Urban Dub Tabs
 Rating:
3.6/5 (5 votes)
Evidence lessons Tabs too difficult? Try these video lessons and learn fast
1
                -------------------------------------------------------------------------------
                             evidence - urbandub
-------------------------------------------------------------------------------
i only tabbed out the rythm guitar cuz i think the lead parts on the other versions of 
song are accurate.
Tuning:standard
verse 1 [1st part]:
e|------------------------------|
B|-7777777777--33333--7777------|
G|-8888888888--33333--8888------|
D|-6666666666--22222--6666------|
A|-7777777777--33333--7777------|
E|------------------------------|
[2nd part]:
e|---------------------------------------------|
B|-77--77-7-77--77--77--77-33--33--33-77-77~---|
G|-88--88-8-88--88--88--88-33--33--33-88-88~---|
D|-66--66-6-66--66--66--66-22--22--22-66-66~---|
A|-77--77-7-77--77--77--77-33--33--33-77-77~---|
E|---------------------------------------------|
refrain: 2x
e|--------------|
B|--------------|
G|-99999--------|
D|-99999-99999--|
A|-------77777--|
E|-99999--------|
chorus 1st part:
e|---------------------------------------|
B|----------7~-7~-7~---------------------|
G|----------8~-8~-8~-6~-6~-6~-9~-9~-9~---|
D|-9~-9~-9~-9~-9~-9~-6~-6~-6~-9~-9~-9~---|
A|-9~-9~-9~-9~-9~-9~-4~-4~-4~-7~-7~-7~---|
E|-7~-7~-7~------------------------------|
chorus 2nd part:
e|--------------------------------|
B|--------777777------------------|
G|--------888888-666666-999999----|
D|-999999-999999-666666-999999----|
A|-999999-999999-444444-777777----|
E|-777777-------------------------|

pre-verse:
e|---------------------------------------------|
B|-77--77-7-77--77--77--77-33--33--33-77-77~---|
G|-88--88-8-88--88--88--88-33--33--33-88-88~---|
D|-66--66-6-66--66--66--66-22--22--22-66-66~---|
A|-77--77-7-77--77--77--77-33--33--33-77-77~---|
E|---------------------------------------------|

verse 2: 2x
e|------------------------------|
B|------------------------------|
G|---------------999999-999999--|
D|-999999-999999-999999-999999--|
A|-777777-777777----------------|
E|---------------999999-999999--|

chorus 1st part:
e|---------------------------------------|
B|----------7~-7~-7~---------------------|
G|----------8~-8~-8~-6~-6~-6~-9~-9~-9~---|
D|-9~-9~-9~-9~-9~-9~-6~-6~-6~-9~-9~-9~---|
A|-9~-9~-9~-9~-9~-9~-4~-4~-4~-7~-7~-7~---|
E|-7~-7~-7~------------------------------|
chorus 2nd part:
e|--------------------------------|
B|--------777777------------------|
G|--------888888-666666-999999----|
D|-999999-999999-666666-999999----|
A|-999999-999999-444444-777777----|
E|-777777-------------------------|
bridge: 2x                           end on
e|-----------------------------------|-----|
B|-----------------7777777-7777777---|--7~-|
G|-----------------8888888-8888888---|--8~-|
D|-6666666-9999999-9999999-9999999---|--9~-|
A|-6666666-9999999-9999999-9999999---|--9~-|
E|-4444444-7777777-------------------|-----|
during the solo:
e|---------------------------------------------|
B|-77--77-7-77--77--77--77-33--33--33-77-77~---|
G|-88--88-8-88--88--88--88-33--33--33-88-88~---|
D|-66--66-6-66--66--66--66-22--22--22-66-66~---|
A|-77--77-7-77--77--77--77-33--33--33-77-77~---|
E|---------------------------------------------|

refrain: 2x      end on
e|--------------|-----|
B|--------------|-----|
G|-99999--------|--9~-|
D|-99999-99999--|--9~-|
A|-------77777--|--7~-|
E|-99999--------|-----|

chorus 2nd part: 4x
e|--------------------------------|
B|--------777777------------------|
G|--------888888-666666-999999----|
D|-999999-999999-666666-999999----|
A|-999999-999999-444444-777777----|
E|-777777-------------------------|

outro:
e|---------------------------------------|
B|-7777777777--33333-----7777777777777~--|
G|-8888888888--33333-----8888888888888~--|
D|-6666666666--22222-----6666666666666~--|
A|-7777777777--33333-----7777777777777~--|
E|---------------------------------------|

enjoy!
.,-\m/d(>_<)b\m?-,.
.,@Ng3L_54,.
            
Submit corrections

comments powered by Disqus
↑ Back to top | Urban Dub Tabs for Evidence. Lyrics for acoustic guitar and electric guitar. 1 Tablatures and chords are parodies/interpretations of the original songs. You may use it for private study, scholarship, research or language learning purposes only