» » »

Urban Dub, Evidence Bass tabs (ver.1)

Artists:  A B C D E F G H I J K L M N O P Q R S T U V W X Y Z # 

Evidence Bass tabs (ver.1)

Urban Dub Tabs
Rating:
3/5 (3 votes)
Evidence lessons Tabs too difficult? Try these video lessons and learn fast
                suggestions and comments ok lng po mas maganda po un para mapaganda kung anu ung 
d

h=hammer
s=slide
()=let it ring lng
~=dredretso lng(pkinggan nyo n lng ung knta)
Verse
guitar only
time has a way of healing..

saka papasok ang bass sa caught in these...

caught in these..
E|----------------------------344--344--347--344--40-|
A|-7--77--77--6710--677--679-------------------------|
D|---------------------------------------------------|
G|---------------------------------------------------|

well i've been... with each.. the pain..
E|-89--8h9-------------9--8h9------98--9--8h9----------------0-|
A|----------4s3h4s5s7----------4h76------------4s3h4s5s7--7----|
D|-------------------------------------------------------------|
G|-------------------------------------------------------------|

Chorus

caught you... caught you..
E|--------7--12---------7--12~(sabayan nyo na lng ung drum roll)-|
A|-2---7---------4---7-------------------------------------------|
D|---------------------------------------------------------------|
G|---------------------------------------------------------------|

caught you... caught you..
E|----------------------------------------------------------------|
A|-2-22-22-22-22-22-22-22--2s7-77-77-77-77-77-77-77--7s4-44-44-44-|
 |-44-44-44-44--4s7-77-77-77-77-77-77-77--------------------------|
D|----------------------------------------------------------------|
G|----------------------------------------------------------------|

tpos e2ng part na toh bgo mg 2nd Verse

E|-00--00--003--00--00--003--44--344--347--344--44-|
A|-------------------------------------------------|
D|-------------------------------------------------|
G|-------------------------------------------------|

Verse 2

what more..
E|-00--(00-00)--00--(00-00)--99--(99-99)--99--(99-99)-| 2x
A|----------------------------------------------------|
D|----------------------------------------------------|
G|----------------------------------------------------|

Chorus
gawin lng ung 2nd part ung dredresto ang banat

Bridge
e2 na ang pinakamahirap kapain IMO alot of hammers and slides pakinggan nyo na lng..

when every..........thing you turned.. did..
E|-444-444-4h7--------------44-4h74-----------99--9h12----------|
A|-------------4s2--2-2h4-2----------7-7h9-7--------------------|
D|--------------------------------------------------------------|
G|--------------------------------------------------------------|

love..
E---9h11-9h11-9h11s12-|
A---------------------|
D---------------------|
G---------------------|

2x un kung d nyo makuha pakinggan nyo na lng or kaya adlib nyo na lng

tpos ung kasunod nun gawin nyo lng ung sa verse 1 hanggang sa mg solo na ung guitar

sa 2nd half ng solo papasok ung bass
E|---------12~(sabayan ung drum roll)-|
A|-4~--7~-----------------------------|
D|------------------------------------|
G|------------------------------------|

tpos chorus na dredrestso lng ang banat
pero meron part na ung key of E nakaopen string pakinggan nyo na lng

pag pumasok na ung lead sa 2nd part ng chorus sasabayan ng bass
E|--------------------------|
A|--2--4--7--6--66-66-66-66-| 8x
D|--------------------------|
G|--------------------------|

mapapansin nyo tumaas ung tunog pero d kau mgbabago kc parehas lng ng chords ng iba lng 
octave


paki rate nalng po ung gawa ko tnx


kung gus2 nyo i print ok lng bsta kasama ung pangalan ko tnx po
            

comments powered by Disqus
↑ Back to top | Urban Dub Bass for Evidence. Lyrics for acoustic guitar and electric guitar. Tablatures and chords are parodies/interpretations of the original songs. You may use it for private study, scholarship, research or language learning purposes only