» » »

Urban Dub, Endless A Silent Whisper Tabs (ver.2)

Artists:  A B C D E F G H I J K L M N O P Q R S T U V W X Y Z # 

Endless A Silent Whisper Tabs (ver.2)

Urban Dub Tabs
 Rating:
4/5 (4 votes)
Endless A Silent Whisper lessons Tabs too difficult? Try these video lessons and learn fast
                Endless A Silent Whisper (Lead & Rhythm)

baka malabo tong tab para sa iba. pagaralan nyo muna ang timing bago nyo tugtugin

Lead
Intro
D#|--8(pluck this note a lot)--7777777-888-101010-----------------------||
A#|-----------------------------------------------101010101010101010-888||
F#|---------------------------------------------------------------------|| 
C#|---------------------------------------------------------------------||
G#|---------------------------------------------------------------------||
C#|---------------------------------------------------------------------||

D#|--------------------------||
A#|--------------------------||
F#|--10101010-9999999--------|| 
C#|-------------------10~----|| 
G#|--------------------------||
C#|--------------------------||

Intro pt. 2
D#|--------------------------------------------------------------------||
A#|--------------------------------------------------------------------||
F#|-999-----555-777-999-----555-777---101010-999-2~--101010-999-7-2~---|| 
C#|-----777-------------777--------------------------------------------||2x 
G#|--------------------------------------------------------------------||
C#|--------------------------------------------------------------------||
end with 10th fret on the F# string at the second time

Verse
D#|---------------------------------------------||
A#|---------------------------------------------||
F#|-9~--7-7~--7-7---7-7--17-17-19-19b-----7-7---|| 
C#|-9~--7-7~--7-7-7-7-7---------------19--7-7---|| 
G#|-7~--5-5~--5-5-7-5-5-------------------5-5---||
C#|---------------7-----------------------------||

D#|-------------------10~------------------------------||
A#|-10-10-10-10-10-10-10~------------------------------||
F#|-9--9--9--9--9--9-------(2x)--9----9----9----9------|| 
C#|--------------------------------10---10---10---10~--|| 
G#|----------------------------------------------------||
C#|----------------------------------------------------||
(reggae strumming)

Chorus - figure out strumming
D#|-------------------------------------------||
A#|-------------------------------------------||
F#|-------------12--------------12------------|| 
C#|-10--7--9-10----10-12b--9-10----10-12b--5--|| 
G#|-10--7----------------------------------5--||
C#|-10--7----------------------------------5--||

Verse 2
D#|----------------------------------------------||
A#|----------------------------------------------||
F#|-------------10-9-7~--------------------------|| 
C#|-7~----3-2-0-----------7-----------7----------|| 
G#|-7~--0---------------0---3-5-5h7-0---3-5-5h7--||
C#|-7~-------------------------------------------||

D#|----------------------------||
A#|----------------------------||
F#|----------------------------|| 
C#|---7-5-3-3h5---7-5-3~-3--5--|| 
G#|-5-----------5--------3--5--||
C#|----------------------3--5--||

D#|------------------------------------------------------------||
A#|------------------------------------------------------------||
F#|-999-121212-999-121212-7h9p7h9p7h9p7h9p7h9p7h9p7h9p7h9------|| 
C#|------------------------------------------------------------|| 
G#|------------------------------------------------------------||
C#|------------------------------------------------------------||

D#|---------------||
A#|---------------||
F#|----7~--8~-----|| 
C#|-3--x---x------|| 
G#|-3--5~--5~-----||
C#|-3-------------||


D#|----------------------------------------------------------------------||
A#|-------------------12121212121212-15151515-121212-101010-888--10~-10~-||
F#|-121212121212121212-------------------------------------------9~--9~--|| 
C#|--------------------------------------------------------------------||2x 
G#|----------------------------------------------------------------------||
C#|----------------------------------------------------------------------||

Chorus 2
D#|---------------------------------------------------------||
A#|---------------------------------------------------------||
F#|-12--12--12--12------------------------------------------|| 
C#|---12--12--12--12--12-12-12------------------------------|| 
G#|-----------------------------12-12-12-10-10-10-12-12-12--||
C#|---------------------------------------------------------||

D#|-------------------------------------||
A#|-12-12-12----------------------------||
F#|---------12-12-12-10-10-10-----------|| 
C#|---------------------------10-10-10--|| 
G#|-------------------------------------||
C#|-------------------------------------||

D#|----------------------------------------------||
A#|----------------------------------------------||
F#|------12-------------12-----------------------|| 
C#|-9-10----10-12b-9-10----10-12b-----55555555---|| 
G#|-----------------------------------55555555---||
C#|-----------------------------------55555555---||

Rpt. Intro Pt. 2

End
D#|-------------------||
A#|--10-10-10---------||
F#|--9--9--9----------|| 
C#|-------------7~----|| 
G#|-------------7~----||
C#|-------------7~----||

-------------------------------------------------------------------------

Rhythm

Intro Pt. 1 (Clean)
D#|------------------||
A#|------------------||
F#|----------5~------|| 
C#|--7-5-0-5-5~------|| 
G#|--7-5-0-5-3~------||
C#|--7-5-0-5---------||

Intro Pt. 2
D#|---------------------------------------||
A#|---------------------------------------||
F#|-----------12-12-12-------------12-12--|| 
C#|--7--7--0-----------14-14-12-12--------|| 
G#|--7--7--0------------------------------||
C#|--7--7--0------------------------------||

D#|--------------------------------------------------------------------||
A#|--------------------------------------------------------------------||
F#|-1616161616161616161616s5--171717171717-----------------------------|| 
C#|-----------------------------------------191919-171717-151515-1414--|| 
G#|--------------------------------------------------------------------||
C#|--------------------------------------------------------------------||

D#|--------------------------------------------------||
A#|-------------------------------1313131313131313---||
F#|-------------------------------1212121212121212---|| 
C#|---------171717--------171717---------------------|| 
G#|--151515--------151515----------------------------||
C#|--------------------------------------------------||

Verse
D#|-----------||
A#|-----------||
F#|-----------|| 
C#|--7~-------|| 
G#|--7~-------||
C#|--7~-------||

i heard the news today..
D#|------------------||
A#|------------------||
F#|------------------|| 
C#|--77777777--7~----|| 
G#|--77777777--7~----||
C#|--77777777--7~----||

Chorus - figure out strumming
D#|------------------||
A#|------------------||
F#|------------------|| 
C#|--10--7--0--5-----|| 
G#|--10--7--0--5-----||
C#|--10--7--0--5-----||


Verse 2
D#|----------------||
A#|----------------||
F#|----------------|| 
C#|-7~-0~-7~-0~----|| 
G#|-7~-0~-7~-0~----||
C#|-7~-0~-7~-0~----||

our vast religions..
D#|------------------------||
A#|------------------------||
F#|-------------7~-8~------|| 
C#|-3--5--3--5--x--x-------|| 
G#|-3--5--3--5--5~-5~------||
C#|-3--5--3--5-------------||

holding you closer...
D#|----------------------||
A#|----------------------||
F#|-----7~-8~-----7~-8~--|| 
C#|--5--x--x---5--x--x---|| 
G#|--5--5~-5~--5--5~-5~--||
C#|--5---------5---------||

Rpt. Chorus
Rpt. Intro Pt. 2

End
D#|-------------------||
A#|--10-10-10---------||
F#|--9--9--9----------|| 
C#|-------------7~----|| 
G#|-------------7~----||
C#|-------------7~----||
            
Submit corrections

comments powered by Disqus
↑ Back to top | Urban Dub Tabs for Endless A Silent Whisper. Lyrics for acoustic guitar and electric guitar. Tablatures and chords are parodies/interpretations of the original songs. You may use it for private study, scholarship, research or language learning purposes only