>
 >
Endless A Silent Whisper

Endless A Silent Whisper Bass Tabs

Urban Dub - Endless A Silent Whisper chords, tabs, tablatures, lyrics

Guitar lessons | Add/correct | Request | Top 50 tabs Artists:  A B C D E F G H I J K L M N O P Q R S T U V W X Y Z 0-9

Endless A Silent Whisper Bass Tabs – Urban Dub

CD, Sheet music, Poster

Do you like Endless A Silent Whisper? Share with your friends now
Bass TabsBass Tabs v2ChordsTabsTabs v2Ukulele
-------------------------------------------------------------------------------
		Endless, A silent Whisper - Urbandub
-------------------------------------------------------------------------------


Tuning: drop d tapos halfstep down... or drop c#


Intro...

2nd part... ung maingay na...

Gb|--------------------------------------------------------------------||
Db|--------------------------------------------------------------------||
Ab|--------------------------------------------------------------------||
Db|--7777777777777777777777777777777700000000000000000000000000000000--||

Gb|-----------------------||
Db|-----------------------|| (2x)
Ab|-----------5h777750----||
Db|--777777777------------||

Gb|-------------------------------||
Db|-------------------------------||
Ab|-----------7h888870------------||
Db|--000000000---------000000000--||

Verse 1...

The night...

Gb|------------------||
Db|------------------|| (2x)
Ab|--------5h7x------||
Db|--7x75h7----5x5---||

Gb|------------------||
Db|------------------|| (2x)
Ab|--------5h7x------||
Db|--0x05h7----5x5---||

Is it in vein...

Gb|------------------||
Db|------------------|| (2x)
Ab|-----775x35-------||
Db|--7x7------555----||

Gb|------------------|--------------------||
Db|------------------|--------------------||
Ab|-----775x35-------|-----775x35~--------||
Db|--0~0------555----|--0~0---------------||

Gb|-----------||
Db|-----------||
Ab|-----------||
Db|---3~-3~---||

I heard the news today...

Chorus...

Is this the begining of our last dance...

Gb|---------------------------------||
Db|---------------------------------|| (d eksaktong bilang...)
Ab|---------------------------------||
Db|--1010101010\77777\33333\000000--||

Verse 2...

Embrace...

Gb|------------------||
Db|------------------|| (4x)
Ab|-------7p5\3------||
Db|--7p5h7-----7p5---||


Gb|-----------------||
Db|-------5/7\5-----|| (4x)
Ab|--5p3h5-----5p3--||
Db|-----------------||

Heaven sheds tear...

Gb|------------------||
Db|------------------|| (4x)
Ab|-------7p5\3------||
Db|--7p5h7-----7p5---||

Gb|-----------------||
Db|-------5/7\5-----|| (3x)
Ab|--5p3h5-----5p3--||
Db|-----------------||

Gb|--------------||
Db|-------5/7x---||
Ab|--5p3h5-------||
Db|--------------||

Refrain...

Our vast religions...

Gb|-----------------------------------------------------------------||
Db|-----------------------------------------------------------------||
Ab|-----------------------------------------------------------------||
Db|--333333333333/555555555555/777777777777/1010101010101010101010--||

long ago, its hopeless...

Gb|-----------------------||
Db|-----------------------||
Ab|-----------------------||
Db|--3333333333333~-3~----||

Bridge...

Hold me in closer...

Gb|--------------------------------||
Db|--------------------------------|| (2x)
Ab|--------------------------------|| (d eksaktong bilang...)
Db|--1010101010\77777\33333333333--||

(repeat chorus...)

Outro...

Gb|--------------------------------------------------------------------||
Db|--------------------------------------------------------------------||
Ab|--------------------------------------------------------------------||
Db|--7777777777777777777777777777777700000000000000000000000000000000--||

Gb|------------||
Db|------------||
Ab|------------||
Db|--5x5x5/7~--||

wakas...

elements...
| /  slide up
| \  slide down
| h  hammer-on
| p  pull-off
| ~  vibrato
| x  Mute note
===============================================================================





Comments


Popular Urban Dub tabs & chords
First Of Summer Bass Tabs
Frailty 1 Bass Tabs
Evidence 1 Chords
Stars And The Sun Chords
A Method To Chaos 1 Tabs
Endless A Silent Whisper Tabs
Evidence 2 Tabs
First Of Summer Tabs
First Of Summer 2 Tabs
Guillotine 3 Tabs


Song lyrics



↑ Back to top | Tablatures and chords are parodies/interpretations of the original songs. You may use it for private study, scholarship, research or language learning purposes only
© 2014 AZChords.com Contact us | Privacy policy | DMCA | Add/correct tabs | Request tabs | Top 50 tabs