» » »

Endless A Silent Whisper Tabs (ver.1)

Artists:  A B C D E F G H I J K L M N O P Q R S T U V W X Y Z # 

Endless A Silent Whisper Tabs (ver.1)

Urban Dub
Rating:
3/5 (6 votes)

Hard to play? Try these video lessons and learn fast.
                
Instrument: 6 String Guitar


Notes:
Tuning: Drop D tapos half step down
(drop d tapos babaan mo ng isang fret ung lhat ng strings)
kung ayaw nyong i half step pwede nyong hanapin ung sound effect manager sa
control panel tapos taasan nyo ng isa ung "key" para tumaas ung sound tapos 
tugma na sa gitara mo. un ung ginagawa ko eh... tip lng

Intro
ung soft part:
Guitar 2 (d eksakto ung kung ilang beses bawat note ah)
Eb|------------------------------------------------------||
Bb|-1313131313--13p12-1212121212-12h13-1313s15-151515s10-||
Gb|------------------------------------------------------|| 
Db|------------------------------------------------------||
Ab|------------------------------------------------------||
Db|------------------------------------------------------||

Eb|-----------------------------------||
Bb|-101010101010s8888s666s55555555s1~-||
Gb|-----------------------------------||
Db|-----------------------------------||
Ab|-----------------------------------||
Db|-----------------------------------||

Guitar 1 (pakinggan nyo nlng ung cd kung klan papasok)
Eb|----------------------------------------------------------||
Bb|-----------8---8---8---8----8---8---8---8---8---8---8---8-||
Gb|-----------9---9---9---9----9---9---9---9---9---9---9---9-||
Db|-7777777-777777777777777-00000000000000007777777777777777-||
Ab|-7777777-777777777777777-00000000000000007777777777777777-||
Db|-7777777-777777777777777-00000000000000007777777777777777-||

Eb|---------3~---||
Bb|---8---8-5~---||
Gb|---9---9-5~---||
Db|00000000-3~---||
Ab|00000000-3~---||
Db|00000000-3~---||

ung malakas part:
guitar 1
Eb|-------7-------7777-------7-------7777------0-------0-0-0-||
Bb|-------8-------8888-------8-------8888-----10------101010-||
Gb|-------9-------9999-------9-------9999-----10------101010-||
Db|--7-77-7-77777-7777--7-77-7-77777-7777-0-00-0-00000-0-0-0-||
Ab|--7-77-7-77777-7777--7-77-7-77777-7777-0-00-0-00000-0-0-0-||
Db|--7-77-7-77777-7777--7-77-7-77777-7777-0-00-0-00000-0-0-0-||

Eb|---------------------------------------------------------------------||
Bb|--888-555-----88888s12~-1313131313131212121010108888----888---888-12~||
Gb|----------777-------12~------------------------------555---555----12~||
Db|---------------------------------------------------------------------||
Ab|---------------------------------------------------------------------||
Db|---------------------------------------------------------------------||



guitar 2
Eb|---------------------------------------------------------------------||
Bb|---------------------------------------------------------------------||
Gb|-999---------7777777h999---------777779101010999-----9101010999777---||
Db|----777101010-----------777101010---------------77777-------------777||
Ab|---------------------------------------------------------------------||
Db|---------------------------------------------------------------------||

Eb|---------------------------------------------------------------------||
Bb|---------------------------------------------------------------------||
Gb|-999---------7777777h999---------777779101010999-----9101010999101010||
Db|----777101010-----------777101010---------------77777----------------||
Ab|---------------------------------------------------------------------||
Db|---------------------------------------------------------------------||

Verse
guitar 1                      guitar 2 sa 2nd time to
Eb|-7~-----------7-0~---||    Eb|-7---------------------12------||
Bb|-8~-----------8-7~---||    Bb|-8----13~--------13-15----15-13||
Gb|-9~-----------9-7~---|| 2x Gb|---9--12~-----14---------------|| 
Db|-7~-----------7-0~---||    Db|-----------14------------------||
Ab|-7~-----------7-0~---||    Ab|-------------------------------||
Db|-7~-----------7-0~---||    Db|-------------------------------||

ung third time reggae style
guitar 1/2
Eb|---7-77---7---7-77---7--10-----------10------------||
Bb|---8-88---8---8-88---8----10-1010-10---10-1010-10--||
Gb|---9-99---9---9-99---9----10-1010-10---10-1010-10--||
Db|---------------------------------------------------||
Ab|---------------------------------------------------||
Db|---------------------------------------------------||

pre-chorus
guitar 1
Eb|-------3~-------||
Bb|-------5~-------||
Gb|-------5~-------||
Db|-3-3-3-3~-------||
Ab|-3-3-3-3~-------||
Db|-3-3-3-3~-------||
guitar 2
Eb|----------------||
Bb|--5----5---5--5-||
Gb|----55--555-55--||
Db|----------------||
Ab|----------------||
Db|----------------||

chorus
guitar 1
Eb|-------7---3---0---||
Bb|-------8---5---10--||
Gb|-------9---5---10--||
Db|---9---7---3---0---||
Ab|--10---7---3---0---||
Db|--10---7---3---0---||

guitar 2
Eb|------7-----------------------------0---||
Bb|------8-----------------------------10--||
Gb|------9-----------------------------10--||
Db|---9--7------12-------------12------0---||
Ab|--10--7--9h10--10-12h13-9h10--12h13-0---||
Db|--10--7-----------------------------0---||







verse 2
guitar 1
Eb|----------7~-----||
Bb|----------8~-----||
Gb|----------9~-----|| 
Db|--7~--0~--7~--0~-||
Ab|--7~--0~--7~--0~-||
Db|--7~--0~--7~--0~-||

guitar 2
this could be our last together..
Eb|---------------------------------------------------||
Bb|---------------------------------------------------||
Gb|-10-9-7--------------------------------------------||
Db|-x--x-x--------------------------------------------||
Ab|-8--7-5----10-------10---------10h12-10----10h12-8-||
Db|----------7--10-12-7--10-12--10----------10--------||

guitar 1
our vast religions... 
Eb|--3-----7-----3---||
Bb|--5-----8-----4---||
Gb|--5-----9-----5---||
Db|--3--5--7---3-3-3-||
Ab|--3--5--7---3-3-3-||
Db|--3--5--7---3-3-3-||
guitar 2
what was pre-destined..
Eb|-------------------------------------------------------3---||
Bb|-------------------------------------------------------4---||
Gb|--999-121212-99-1212-7h9-7h9-7h9-7h9-7h9-7h9-7h9-7h9---5---||
Db|-----------------------------------------------------3-3-3-||
Ab|-----------------------------------------------------3-3-3-||
Db|-----------------------------------------------------3-3-3-||

guitar 1
hold me in closer...
Eb|------------------------3--||
Bb|------------------------4--||
Gb|-1212121212-1414141414--5--|| 2x
Db|--x-x-x-x-x--x-x-x-x-x--3--||
Ab|-1010101010-1212121212--3--||
Db|------------------------3--||
guitar 2
Eb|-----------------------------3---||
Bb|-------13-12h13s15-13-12-10--4---||
Gb|-10h12-----------------------5---|| 2x
Db|-----------------------------3---||
Ab|-----------------------------3---||
Db|-----------------------------3---||

chorus 2
guitar 1
Eb|-------7---3---0---||
Bb|-------8---5---10--||
Gb|-------9---5---10--||
Db|---9---7---3---0---||
Ab|--10---7---3---0---||
Db|--10---7---3---0---||

guitar 2
Eb|--------------------------------------------------------0---||
Bb|--------------------------------------------------------10--||
Gb|--------------------------------------------------------10--||
Db|---9-----------------------------12-------------12------0---||
Ab|--10-12-10-9-10--12-10-9-7---9h10--10-12h13-9h10--12h13-0---||
Db|--10----------------------------------------------------0---||





Outro
guitar 1
Eb|-------7-------7777-------7-------7777------0-------0-0-0-------3-------7-||
Bb|-------8-------8888-------8-------8888-----10------101010-------5-------8-||
Gb|-------9-------9999-------9-------9999-----10------101010-------5-------9-||
Db|--7-77-7-77777-7777--7-77-7-77777-7777-0-00-0-00000-0-0-0--3-33-3-5-5-5-7-||
Ab|--7-77-7-77777-7777--7-77-7-77777-7777-0-00-0-00000-0-0-0--3-33-3-5-5-5-7-||
Db|--7-77-7-77777-7777--7-77-7-77777-7777-0-00-0-00000-0-0-0--3-33-3-5-5-5-7-||

guitar 2
Eb|---------------------------------------------------------------------------||
Bb|-------------------------------------------------------------------8-12-13-||
Gb|-999---------7777777h999---------777779101010999-----91010109991010--------||
Db|----777101010-----------777101010---------------77777----------------------||
Ab|---------------------------------------------------------------------------||
Db|---------------------------------------------------------------------------||


pls rate
            
Hard to play? Try these video lessons and learn fast. | Correct




comments powered by Disqus
↑ Back to top | Tablatures and chords are parodies/interpretations of the original songs. You may use it for private study, scholarship, research or language learning purposes only