>
 >
A New Tattoo 1

A New Tattoo 1 Guitar Tabs

Urban Dub - A New Tattoo 1 chords, tabs, tablatures, lyrics

Guitar lessons | Add/correct | Request | Top 50 tabs Artists:  A B C D E F G H I J K L M N O P Q R S T U V W X Y Z 0-9

A New Tattoo 1 Guitar Tabs – Urban Dub

CD, Sheet music, Poster

Do you like A New Tattoo 1? Share with your friends now
Bass TabsChordsChords v2TabsTabs v2Ukulele
A New Tattoo-Urbandub
Spread the sound of the south
Stop Piracy PLEASE
Special thanks:to Urbandub
for this kickass song


*Tuning:E-B-G-D-A-D(E DROPPED TO D)
*Effects used:DISTORTION/OVERDRIVE AND DELAY
*Guitar1 "REQUIRES DELAY EFFECT"
*This tab is updated,6/10/06


INTRODUCTION:

GUITAR 2:
E--------2------------5-2-2h3p3-|
B-----0-----3-------0-----------|
G--0-------------0--------------|
D-------------------------------|
A-------------------------------|
D-------------------------------|

GUITAR 2:
E--------2-----|
B-----0-----3--|
G--0-----------|
D--------------|
A--------------|
D--------------|

GUITAR 2:
E-------|
B-4-----|
G---6---|   (4x)
D-------|
A-------|
D-------|

GUITAR1(same time as 2nd part of GUITAR2):
E-3-3h5-7-7p5-3-3h5-2-2h3-|
B-------------------------|
G-------------------------|
D-------------------------|
A-------------------------|
D-------------------------|

CHORUS:

GUITAR2:

E---------|
B---------|
G---------|
D-5-5-5-5-|
A-5-5-5-5-|
D-5-5-5-5-|

GUITAR1:

E---------------|
B-6/8-8-8-8-8p7-|
G---------------|
D---------------|
A---------------|
D---------------|

GUITAR2:

E---------|
B---------|
G---------|
D-2-2-2-2-|
A-2-2-2-2-|
D-2-2-2-2-|

GUITAR1:

E--------------------|
B-6/10-10-10-10-10p8-|
G--------------------|
D--------------------|
A--------------------|
D--------------------|

GUITAR2:

E---------|
B---------|
G---------|
D-4-4-4-4-|
A-4-4-4-4-|
D-2-2-2-2-|

GUITAR1:

E--------------------|
B-7-7-7-7-7p6--------|
G--------------------|
D--------------------|
A--------------------|
D--------------------|


GUITAR2:

E---------|
B---------|
G---------|
D-5-5-5-5-|
A-5-5-5-5-|
D-3-3-3-3-|

GUITAR1:

E--------------------|
B-1/2-2h3------------|
G--------------------|
D--------------------|
A--------------------|
D--------------------|

GUITAR2:

E---------|
B---------|
G---------|
D-5-5-5-5-|
A-5-5-5-5-|
D-5-5-5-5-|

GUITAR1:

E--------------------|
B-6/8-8-8-8-8p7-8p7--|
G--------------------|
D--------------------|
A--------------------|
D--------------------|

GUITAR2:

E---------|
B---------|
G---------|
D-2-2-2-2-|
A-2-2-2-2-|
D-2-2-2-2-|

GUITAR1:

E--------------------|
B-6/10-10-10-10-10p8-|
G--------------------|
D--------------------|
A--------------------|
D--------------------|

GUITAR2:

E---------|
B---------|
G---------|
D-4-4-4-4-|
A-4-4-4-4-|
D-2-2-2-2-|

GUITAR1:

E--------------------|
B-7-7-7-7-7p6--------|
G--------------------|
D--------------------|
A--------------------|
D--------------------|


GUITAR2:

E---------|
B---------|
G---------|
D-5-5-5-5-|
A-5-5-5-5-|
D-3-3-3-3-|

GUITAR1:

E--------------------|
B-1/2-2h3------------|
G--------------------|
D--------------------|
A--------------------|
D--------------------|

VERSE:

GUITAR1:

E---------------------|
B---------------------|
G--12-12-12-12-12-12--|
D---x--x--x--x--x--x--|
A--10-10-10-10-10-10--|
D---------------------|

E---------------------|
B---------------------|
G--9-9-9-9-9-9-9-9-9--|
D--x-x-x-x-x-x-x-x-x--|
A--7-7-7-7-7-7-7-7-7--|
D---------------------|

E---------------10--------------------12-----------|
B-----------12-----12---------12h13------13p12-----|
G--9h11-11------------11----12-----------------12--|
D--------------------------------------------------|
A--------------------------------------------------|
D--------------------------------------------------|

E--------------10--------------------------------------|
B---------12-------12----------------12----------------|
G--11-----------------11--9---12h14-----14-14p12-9-12--|
D------------------------------------------------------|
A------------------------------------------------------|
D------------------------------------------------------|

E---------------10--------------------12-----------|
B-----------12-----12---------12h13------13p12-----|
G--9h11-11------------11----12-----------------12--|
D--------------------------------------------------|
A--------------------------------------------------|
D--------------------------------------------------|

GUITAR2:

E------|
B------|
G-4----|
D-4----|
A-2----|
D------|

E------|
B------|
G-5----|
D-5----|
A-3----|
D------|

E------|
B------|
G-5----|
D-5----|
A-5----|
D------|

E------|
B------|
G-2----|
D-2----|
A-2----|
D------|

E------|
B------|
G-4----|
D-4----|
A-2----|
D------|

E------|
B------|
G-5----|
D-5----|
A-3----|
D------|

REFRAIN

GUITAR1:

E-------------------------------------------|
B-------------------------------------------|
G--2-2-2-2--4h5-4h5-4p0-2-4--4/5-5-5-5-7-7--|
D--2-2-2-2-------------------x/x-x-x-x-x-x--|
A--0-0-0-0-------------------2/3-3-3-3-5-5--|
D-------------------------------------------|

E-------------------------------7--|
B-------------------------------8--|
G--2-2-2-2---4/5-4/5-4-0-2-4----7--|
D--2-2-2-2-------------------------|
A--0-0-0-0-------------------------|
D----------------------------------|

GUITAR2:

E---------------------------|
B---------------------------|
G--2-2-2-2-2-2--5-5-5-5-5-5-|
D--2-2-2-2-2-2--5-5-5-5-5-5-|
A--0-0-0-0-0-0--3-3-3-3-3-3-|
D---------------------------|

E-----------------------------|
B-----------------------------|
G--2-2-2-2-2-2--5-5-5-5-5-5---|
D--2-2-2-2-2-2--5-5-5-5-5-5---|
A--0-0-0-0-0-0--3-3-3-3-3-3---|
D-----------------------------|

CHORUS:

GUITAR2:

E---------|
B---------|
G---------|
D-5-5-5-5-|
A-5-5-5-5-|
D-5-5-5-5-|

GUITAR1:

E---------------|
B-6/8-8-8-8-8p7-|
G---------------|
D---------------|
A---------------|
D---------------|

GUITAR2:

E---------|
B---------|
G---------|
D-2-2-2-2-|
A-2-2-2-2-|
D-2-2-2-2-|

GUITAR1:

E--------------------|
B-6/10-10-10-10-10p8-|
G--------------------|
D--------------------|
A--------------------|
D--------------------|

GUITAR2:

E---------|
B---------|
G---------|
D-4-4-4-4-|
A-4-4-4-4-|
D-2-2-2-2-|

GUITAR1:

E--------------------|
B-7-7-7-7-7p6--------|
G--------------------|
D--------------------|
A--------------------|
D--------------------|


GUITAR2:

E---------|
B---------|
G---------|
D-5-5-5-5-|
A-5-5-5-5-|
D-3-3-3-3-|

GUITAR1:

E--------------------|
B-1/2-2h3------------|
G--------------------|
D--------------------|
A--------------------|
D--------------------|

GUITAR2:

E---------|
B---------|
G---------|
D-5-5-5-5-|
A-5-5-5-5-|
D-5-5-5-5-|

GUITAR1:

E--------------------|
B-6/8-8-8-8-8p7-8p7--|
G--------------------|
D--------------------|
A--------------------|
D--------------------|

GUITAR2:

E---------|
B---------|
G---------|
D-2-2-2-2-|
A-2-2-2-2-|
D-2-2-2-2-|

GUITAR1:

E--------------------|
B-6/10-10-10-10-10p8-|
G--------------------|
D--------------------|
A--------------------|
D--------------------|

GUITAR2:

E---------|
B---------|
G---------|
D-4-4-4-4-|
A-4-4-4-4-|
D-2-2-2-2-|

GUITAR1:

E--------------------|
B-7-7-7-7-7p6--------|
G--------------------|
D--------------------|
A--------------------|
D--------------------|


GUITAR2:

E---------|
B---------|
G---------|
D-5-5-5-5-|
A-5-5-5-5-|
D-3-3-3-3-|

GUITAR1:

E--------------------|
B-1/2-2h3-3/12p0-----|
G--------------------|
D--------------------|
A--------------------|
D--------------------|

VERSE:

GUITAR1:

E--------------10--------------------------------------|
B---------12-------12----------------12----------------|
G--11-----------------11--9---12h14-----14-14p12-9-12--|
D------------------------------------------------------|
A------------------------------------------------------|
D------------------------------------------------------|

E---------------10--------------------12-----------|
B-----------12-----12---------12h13------13p12-----|
G--9h11-11------------11----12-----------------12--|
D--------------------------------------------------|
A--------------------------------------------------|
D--------------------------------------------------|

E--------------10--------------------------------------|
B---------12-------12----------------12----------------|
G--11-----------------11--9---12h14-----14-14p12-9-12--|
D------------------------------------------------------|
A------------------------------------------------------|
D------------------------------------------------------|

E---------------10--------------------12-----------|
B-----------12-----12---------12h13------13p12-----|
G--9h11-11------------11----12-----------------12--|
D--------------------------------------------------|
A--------------------------------------------------|
D--------------------------------------------------|

GUITAR2:

E------|
B------|
G-4----|
D-4----|
A-2----|
D------|

E------|
B------|
G-5----|
D-5----|
A-3----|
D------|

E------|
B------|
G-5----|
D-5----|
A-5----|
D------|

E------|
B------|
G-2----|
D-2----|
A-2----|
D------|

E------|
B------|
G-4----|
D-4----|
A-2----|
D------|

E------|
B------|
G-5----|
D-5----|
A-3----|
D------|

REFRAIN:

GUITAR1:

E-------------------------------------------|
B-------------------------------------------|
G--2-2-2-2--4h5-4h5-4p0-2-4--4/5-5-5-5-7-7--|
D--2-2-2-2-------------------x/x-x-x-x-x-x--|
A--0-0-0-0-------------------2/3-3-3-3-5-5--|
D-------------------------------------------|

E-------------------------------7--|
B-------------------------------8--|
G--2-2-2-2---4/5-4/5-4-0-2-4----7--|
D--2-2-2-2-------------------------|
A--0-0-0-0-------------------------|
D----------------------------------|

GUITAR2:

E---------------------------|
B---------------------------|
G--2-2-2-2-2-2--5-5-5-5-5-5-|
D--2-2-2-2-2-2--5-5-5-5-5-5-|
A--0-0-0-0-0-0--3-3-3-3-3-3-|
D---------------------------|

E-----------------------------|
B-----------------------------|
G--2-2-2-2-2-2--5-5-5-5-5-5---|
D--2-2-2-2-2-2--5-5-5-5-5-5---|
A--0-0-0-0-0-0--3-3-3-3-3-3---|
D-----------------------------|

CHORUS:

GUITAR2:

E---------|
B---------|
G---------|
D-5-5-5-5-|
A-5-5-5-5-|
D-5-5-5-5-|

GUITAR1:

E---------------|
B-6/8-8-8-8-8p7-|
G---------------|
D---------------|
A---------------|
D---------------|

GUITAR2:

E---------|
B---------|
G---------|
D-2-2-2-2-|
A-2-2-2-2-|
D-2-2-2-2-|

GUITAR1:

E--------------------|
B-6/10-10-10-10-10p8-|
G--------------------|
D--------------------|
A--------------------|
D--------------------|

GUITAR2:

E---------|
B---------|
G---------|
D-4-4-4-4-|
A-4-4-4-4-|
D-2-2-2-2-|

GUITAR1:

E--------------------|
B-7-7-7-7-7p6--------|
G--------------------|
D--------------------|
A--------------------|
D--------------------|


GUITAR2:

E---------|
B---------|
G---------|
D-5-5-5-5-|
A-5-5-5-5-|
D-3-3-3-3-|

GUITAR1:

E--------------------|
B-1/2-2h3------------|
G--------------------|
D--------------------|
A--------------------|
D--------------------|

GUITAR2:

E---------|
B---------|
G---------|
D-5-5-5-5-|
A-5-5-5-5-|
D-5-5-5-5-|

GUITAR1:

E--------------------|
B-6/8-8-8-8-8p7-8p7--|
G--------------------|
D--------------------|
A--------------------|
D--------------------|

GUITAR2:

E---------|
B---------|
G---------|
D-2-2-2-2-|
A-2-2-2-2-|
D-2-2-2-2-|

GUITAR1:

E--------------------|
B-6/10-10-10-10-10p8-|
G--------------------|
D--------------------|
A--------------------|
D--------------------|

GUITAR2:

E---------|
B---------|
G---------|
D-4-4-4-4-|
A-4-4-4-4-|
D-2-2-2-2-|

GUITAR1:

E--------------------|
B-7-7-7-7-7p6--------|
G--------------------|
D--------------------|
A--------------------|
D--------------------|


GUITAR2:

E---------|
B---------|
G---------|
D-5-5-5-5-|
A-5-5-5-5-|
D-3-3-3-3-|

GUITAR1:

E--------------------|
B-1/2-2h3------------|
G--------------------|
D--------------------|
A--------------------|
D--------------------|

BRIDGE:

PART1:

GUITAR2:
E-----------------------------------|
B-----------------------------------|
G-----------------------------------|
D--2-22-222-22-2/5-55-555-55-5-0----|
A--2-22-222-22-2/5-55-555-55-5-0----|
D--2-22-222-22-2/5-55-555-55-5-0----|

E--------------------------------------------------|
B--------------------------------------------------|
G--------------------------------------------------|
D--3-3-333--3-3-3-333-3-3-3/7-7-777-7-7-7-777-7-7--|
A--3-3-333--3-3-3-333-3-3-3/7-7-777-7-7-7-777-7-7--|
D--3-3-333--3-3-3-333-3-3-3/7-7-777-7-7-7-777-7-7--|

GUITAR1:

E-----------------------------------|
B-----------------------------------|
G-----------------------------------|
D--2-22-222-22----------------------|
A--2-22-222-22-3-3h5-3h5------------|
D--2-22-222-22----------------------|

PART2:

GUITAR2:

E--------------------------------------------------|
B--------------------------------------------------|
G--------------------------------------------------|
D--3-3-333--3-3-3-333-3-3-3/7-7-777-7-7-7-777-7-7--|
A--3-3-333--3-3-3-333-3-3-3/7-7-777-7-7-7-777-7-7--|
D--3-3-333--3-3-3-333-3-3-3/7-7-777-7-7-7-777-7-7--|

GUITAR1:

E-----------------------------------|
B-10/12-10-11-11-9-10-10-8-9-9--7---|
G-----------------------------------|
D-----------------------------------|
A-----------------------------------|
D-----------------------------------|

(PLUCK FAST)
E---------------------------------------------------------------------------|
B-[12-11-9-(2x)]-12-11-[11-9-8-(2x)]-11-9-[10-9-7(2x)]-9-7-[9-8-7-(2x)]-9-8-|
G---------------------------------------------------------------------------|
D---------------------------------------------------------------------------|
A---------------------------------------------------------------------------|
D---------------------------------------------------------------------------|

PRECHORUS(first stanza of chorus):

GUITAR1:
E-------|
B-------|
G-------|
D-7-----|
A-8-----|
D-7-----|

CHORUS(chorus is played four times):

GUITAR2:

E---------|
B---------|
G---------|
D-5-5-5-5-|
A-5-5-5-5-|
D-5-5-5-5-|

GUITAR1:

E---------------|
B-6/8-8-8-8-8p7-|
G---------------|
D---------------|
A---------------|
D---------------|

GUITAR2:

E---------|
B---------|
G---------|
D-2-2-2-2-|
A-2-2-2-2-|
D-2-2-2-2-|

GUITAR1:

E--------------------|
B-6/10-10-10-10-10p8-|
G--------------------|
D--------------------|
A--------------------|
D--------------------|

GUITAR2:

E---------|
B---------|
G---------|
D-4-4-4-4-|
A-4-4-4-4-|
D-2-2-2-2-|

GUITAR1:

E--------------------|
B-7-7-7-7-7p6--------|
G--------------------|
D--------------------|
A--------------------|
D--------------------|


GUITAR2:

E---------|
B---------|
G---------|
D-5-5-5-5-|
A-5-5-5-5-|
D-3-3-3-3-|

GUITAR1:

E--------------------|
B-1/2-2h3------------|
G--------------------|
D--------------------|
A--------------------|
D--------------------|

GUITAR2:

E---------|
B---------|
G---------|
D-5-5-5-5-|
A-5-5-5-5-|
D-5-5-5-5-|

GUITAR1:

E--------------------|
B-6/8-8-8-8-8p7-8p7--|
G--------------------|
D--------------------|
A--------------------|
D--------------------|

GUITAR2:

E---------|
B---------|
G---------|
D-2-2-2-2-|
A-2-2-2-2-|
D-2-2-2-2-|

GUITAR1:

E--------------------|
B-6/10-10-10-10-10p8-|
G--------------------|
D--------------------|
A--------------------|
D--------------------|

GUITAR2:

E---------|
B---------|
G---------|
D-4-4-4-4-|
A-4-4-4-4-|
D-2-2-2-2-|

GUITAR1:

E--------------------|
B-7-7-7-7-7p6--------|
G--------------------|
D--------------------|
A--------------------|
D--------------------|


GUITAR2:

E---------|
B---------|
G---------|
D-5-5-5-5-|
A-5-5-5-5-|
D-3-3-3-3-|

GUITAR1:

E--------------------|
B-1/2-2h3------------|
G--------------------|
D--------------------|
A--------------------|
D--------------------|

*for the fourth time of CHORUS,GUITAR1 plays:

E-------------------|
B-------------------|
G-------------------|
D-14-14p12-10-10p8--|
A-------------------|
D-------------------|


CODA(permanent)(played four times):

GUITAR1:

E-7-7h9-11h13--|
B-------------|
G-------------|
D-------------|
A-------------|
D-------------|

GUITAR2:

E-----------|
B-----------|
G--5-55555--|
D--5-55555--|
A--3-33333--|
D-----------|

OUTRODUCTION:

GUITAR1 AND GUITAR2:

E-----------|
B-----------|
G-----------|
D--2--------|
A--2--------|
D--2--------|

**TAB FINISHED,ENJOY!**





Comments


Popular Urban Dub tabs & chords
Endless A Silent Whisper Bass Tabs
A New Tattoo 1 Chords
Alert The Armory 1 Chords
Safety In Numbers Chords
The Fight Is Over Chords
Alert The Armory 2 Tabs
Boy Tabs
Eating Me Tabs
Evidence Tabs
Guillotine Tabs


Song lyrics



↑ Back to top | Tablatures and chords are parodies/interpretations of the original songs. You may use it for private study, scholarship, research or language learning purposes only
© 2014 AZChords.com Contact us | Privacy policy | DMCA | Add/correct tabs | Request tabs | Top 50 tabs