>
 >
A New Tattoo

A New Tattoo Guitar Tabs

Urban Dub - A New Tattoo chords, tabs, tablatures, lyrics

Guitar lessons | Add/correct | Request | Top 50 tabs Artists:  A B C D E F G H I J K L M N O P Q R S T U V W X Y Z 0-9

A New Tattoo Guitar Tabs – Urban Dub

CD, Sheet music, Poster

Do you like A New Tattoo? Share with your friends now
Bass TabsChordsChords v2TabsTabs v2Ukulele
"A NEW TATTOO"

Album:INFLUENCE

Note:Helo ako po yung batang rackizta na gumawa nito,14yrs.old plang po ako.
ito po yung tabs ng a new tattoo kung sino man yung gustong humingi,try nyo
nlang po at kung may mali pede pakitama nlang po at paki add nman po ako sa

~ - bend
/ - slide
h - hold
x - mute ('hende' palm mute. Iba yon.)


INTRO


0:03
E |------------    E|----------|
B |-------7-3--    B|------7---|
G |----4h------ or G|----7---7-|
D |--5h--------    D|--5-------|
A |------------    A|----------|
D |------------    D|----------|

0:06				 You can position your fingers like so, so you
can pick them notes easily.
E |--------5-----------------     Eb|---5-----|
B |----------7----7/8-7------     Bb|---7-----|
G |----7h------7--------9--7- or  F#|---7-----|
D |--5h----------------------     C#|---5-----|
A |--------------------------     Ab|---------|
D |--------------------------     C#|---------|

0:09
E |-------------    E|------------------------------------|
B |--------7-3--    B|--8-8h-10-8-10-12-12/10-10/8-8/7----|
G |----4h------- or G|------------------------------------|
D |--5h---------    D|------------------------------------|
A |-------------    A|------------------------------------|
D |-------------    D|------------------------------------|

0:12
E |-----------|
B |--9-7------| repeat 4x
G |-----------|
D |-----------|
A |-----------|
D |-----------|

CHORUS (2x)

JOHN (lead)			GABBY (rhythm)
0:15
E |---------------------	E |-----------|
B |--6~7~7~7~7-6-6-6-6--	B |-----------|
G |---------------------	G |-----------|
D |---------------------	D |--5-5-5-5--|
A |---------------------	A |--5-5-5-5--|
D |---------------------	D |--5-5-5-5--|

0:18
E |-------------------------	E |-----------|
B |--10-10-10-10---8-8-8-8--	B |-----------|
G |-------------------------	G |-----------|
D |-------------------------	D |--2-2-2-2--|
A |-------------------------	A |--2-2-2-2--|
D |-------------------------	D |--2-2-2-2--|

0:21
E |---------------------	E |-----------|
B |--6~7~7~7~7-6-6-6-6--	B |-----------|
G |---------------------	G |--4-4-4-4--|
D |---------------------	D |--4-4-4-4--|
A |---------------------	A |--2-2-2-2--|
D |---------------------	D |-----------|

0:24
E |---------------------	E |-----------|
B |---------------------	B |-----------|
G |--4/5-4/5-4/5-4/5-4--	G |--5-5-5-5--|
D |---------------------	D |--5-5-5-5--|
A |---------------------	A |--3-3-3-3--|
D |---------------------	D |-----------|


VERSE 1

0:34 ('Great moments...')
E |---------------------|
B |---------------------|
G |--12-12-12-12-12-12--|
D |---x--x--x--x--x--x--|
A |--10-10-10-10-10-10--|
D |---------------------|

0:37
E |---------------------|
B |---------------------|
G |--9-9-9-9-9-9-9-9-9--|
D |--x-x-x-x-x-x-x-x-x--|
A |--7-7-7-7-7-7-7-7-7--|
D |---------------------|


JOHN (lead)
0:40
E |----------------10-10--------------------------12--------------------|
B |----------12-12-------12-----------12/13-12/13----13-13/12-13/12-----|
G |--9/11-11----------------11-12-12--------------------------------12--|
D |---------------------------------------------------------------------|
A |---------------------------------------------------------------------|
D |---------------------------------------------------------------------|

0:45
E |--------------10-10-------------------------------------------------|
B |--------12-12-------12----------------------12----------------------|
G |--11-11----------------11-9-9---12/14-12/14----14-14/12-14/12-9-12--|
D |--------------------------------------------------------------------|
A |--------------------------------------------------------------------|
D |--------------------------------------------------------------------|

0:51
E |----------------10-10--------------------------12--------------------|
B |----------12-12-------12-----------12/13-12/13----13-13/12-13/12-----|
G |--9/11-11----------------11-12-12--------------------------------12--|
D |---------------------------------------------------------------------|
A |---------------------------------------------------------------------|
D |---------------------------------------------------------------------|

GABBY (rhythm)-Kasabay po ito sa 40 seconds yung lead ni john
0:40
E|-----------|
B|-----------|
G|--4--------|
D|--4--------|
A|--2--------|
D|-----------|

0:43
E|-----------|
B|-----------|
G|--5--------|
D|--5--------|
A|--3--------|
D|-----------|

0:45
E|-----------|
B|-----------|
G|-----------|
D|--5--------|
A|--5--------|
D|--5--------|

0:48
E|-----------|
B|-----------|
G|-----------|
D|--2--------|
A|--2--------|
D|--2--------|

0:51
E|-----------|
B|-----------|
G|--4--------|
D|--4--------|
A|--2--------|
D|-----------|

0:54
E|-----------|
B|-----------|
G|--5--------|
D|--5--------|
A|--3--------|
D|-----------|

0:56 ('Tongue tied...')
JOHN (lead)						GABBY (rhythm)
E |------------------------------------------- E|---------------------------|
B |------------------------------------------- B|---------------------------|
G |--2-2-2-2--4/5-4/5-4-0-2-4--4/5-5-5-5-7-7-- G|--2-2-2-2-2-2--5-5-5-5-5-5-|
D |--2-2-2-2-------------------x/x-x-x-x-x-x-- D|--2-2-2-2-2-2--5-5-5-5-5-5-|
A |--0-0-0-0-------------------2/3-3-3-3-5-5-- A|--0-0-0-0-0-0--3-3-3-3-3-3-|
D |------------------------------------------- D|---------------------------|

1:02
JOHN (lead)				GABBY (rhythm)
E |-------------------------------7--    E |------------------------------|
B |-------------------------------8--     B |-----------------------------|
G |--2-2-2-2---4/5-4/5-4-0-2-4----7--    G |--2-2-2-2-2-2--5-5-5-5-5-5----|
D |--2-2-2-2-------------------------    D |--2-2-2-2-2-2--5-5-5-5-5-5----|
A |--0-0-0-0-------------------------    A |--0-0-0-0-0-0--3-3-3-3-3-3----|
D |----------------------------------    D |------------------------------|
(the xxx787 part, John plays it with a delay effect or you can hit 4 times
kung ala kayong delay)

REPEAT CHORUS

VERSE 2
1:20
E |--------------10-10-------------------------------------------------|
B |--------12-12-------12----------------------12----------------------|
G |--11-11----------------11-9-9---12/14-12/14----14-14/12-14/12-9-12--|
D |--------------------------------------------------------------------|
A |--------------------------------------------------------------------|
D |--------------------------------------------------------------------|

1:24
E |----------------10-10--------------------------12--------------------|
B |----------12-12-------12-----------12/13-12/13----13-13/12-13/12-----|
G |--9/11-11----------------11-12-12--------------------------------12--|
D |---------------------------------------------------------------------|
A |---------------------------------------------------------------------|
D |---------------------------------------------------------------------|

1:30
E |--------------10-10-------------------------------------------------|
B |--------12-12-------12----------------------12----------------------|
G |--11-11----------------11-9-9---12/14-12/14----14-14/12-14/12-9-12--|
D |--------------------------------------------------------------------|
A |--------------------------------------------------------------------|
D |--------------------------------------------------------------------|

1:36
E |----------------10-10--------------------------12--------------------|
B |----------12-12-------12-----------12/13-12/13----13-13/12-13/12-----|
G |--9/11-11----------------11-12-12--------------------------------12--|
D |---------------------------------------------------------------------|
A |---------------------------------------------------------------------|
D |---------------------------------------------------------------------|

yung rhythm ni gabby dito sa verse 2 same as verse 1 din

1:41 ('In my mind...')
JOHN (lead)						GABBY (rhythm)
E |------------------------------------------ E|----------------------------|
B |------------------------------------------ B|----------------------------|
G |--2-2-2-2--4/5-4/5-4-0-2-4-4/5-5-5-5-7-7-- G|--2-2-2-2-2-2--5-5-5-5-5-5--|
D |--2-2-2-2------------------x/x-x-x-x-x-x-- D|--2-2-2-2-2-2--5-5-5-5-5-5--|
A |--0-0-0-0------------------2/3-3-3-3-5-5-- A|--0-0-0-0-0-0--3-3-3-3-3-3--|
D |------------------------------------------ D|----------------------------|

1:46
JOHN (lead)				GABBY (rhythm)
E |-------------------------------7--    E |------------------------------|
B |-------------------------------8--     B |-----------------------------|
G |--2-2-2-2---4/5-4/5-4-0-2-4----7--    G |--2-2-2-2-2-2--5-5-5-5-5-5----|
D |--2-2-2-2-------------------------    D |--2-2-2-2-2-2--5-5-5-5-5-5----|
A |--0-0-0-0-------------------------    A |--0-0-0-0-0-0--3-3-3-3-3-3----|
D |----------------------------------    D |------------------------------|

REPEAT CHORUS

2:16 (am i too late)
E|-----------------------------------|
B|-----------------------------------| repeat 2x
G|-----------------------------------|
D|--2-22-222-22-2/5-55-555-55-5-0----|
A|--2-22-222-22-2/5-55-555-55-5-0----|
D|--2-22-222-22-2/5-55-555-55-5-0----|

2:36 (she's breaking me down again)
E|--------------------------------------------------|
B|--------------------------------------------------|  repeat 2x
G|--------------------------------------------------|
D|--3-3-333--3-3-3-333-3-3-3/7-7-777-7-7-7-777-7-7--|
A|--3-3-333--3-3-3-333-3-3-3/7-7-777-7-7-7-777-7-7--|
D|--3-3-333--3-3-3-333-3-3-3/7-7-777-7-7-7-777-7-7--|

REPEAT CHORUS 4x

3:38 (permanent)
E|-----------|
B|-----------| repeat 4x
G|--5-55555--|
D|--5-55555--|
A|--3-33333--|
D|-----------|

3:49 ito yung last na tab sa song yung nasa huli na kung di nyo ma gets makinig
nlang po kayo sa cd
E|-----------|
B|-----------|
G|-----------|
D|--2--------|
A|--2--------|
D|--2--------|

yan po lahat ng tabs ng a new tattoo sana mag enjoy po kayo!





Comments


Popular Urban Dub tabs & chords
A Call To Arms Chords
Endless A Silent Whisper Chords
Good Morning Bones Chords
We Kept It Hidden 2 Chords
Mula Tabs
Soul Searching 5 Tabs
The Fight Is Over 1 Tabs
A New Tattoo Ukulele
Home Ukulele
We Kept It Hidden Ukulele


Song lyrics



↑ Back to top | Tablatures and chords are parodies/interpretations of the original songs. You may use it for private study, scholarship, research or language learning purposes only
© 2014 AZChords.com Contact us | Privacy policy | DMCA | Add/correct tabs | Request tabs | Top 50 tabs