» » »

Urban Dub, A New Tattoo Bass tabs (ver.1)

Artists:  A B C D E F G H I J K L M N O P Q R S T U V W X Y Z # 

A New Tattoo Bass tabs (ver.1)

Urban Dub Tabs
 Rating:
4.2/5 (5 votes)
A New Tattoo lessons Tabs too difficult? Try these video lessons and learn fast
1
                Intro: Rest 4 bars, then . . . 

G|----------|----------|----------|----------|
D|----------|----------|----------|----------|
A|----------|-66666666-|----------|----------|
E|-22222222-|----------|-66666666-|-77777777-|

G|----------|----------|----------|----------|
D|----------|----------|----------|----------|
A|----------|-66666666-|----------|----------|
E|-222222---|----------|-66666666-|-77777777-|

Verse I:

Great moments . . . 
G|----------|----------|-----------------|-----------------|
D|----------|----------|-----------------|-----------------|
A|----------|----------|-----------------|-----------------|
E|----------|----------|-6-6-66666-6-6-6-|-7-7-77777-7-7-7-|

Desperately trying . . . 
G|-----------------|-----------------|-----------------|-----------------|
D|-----------------|-----------------|-----------------|-----------------|
A|-----------------|-6-6-66666-6-6-6-|-----------------|-----------------|
E|-2-2-22222-2-2-2-|-----------------|-6-6-66666-6-6-6-|-7-7-77777-7-7-7-|

Tongue tied . . . 
G|----------|----------|----------|----------|
D|----------|----------|----------|----------|
A|----------|----------|----------|----------|
E|-44444444-|-77777777-|-44444444-|-77777----|

Pre-Verse:

G|----------|----------|----------|----------|
D|----------|----------|----------|----------|
A|----------|-666666---|----------|----------|
E|-22222222-|----------|-66666666-|-77777777-|

Verse II:

Caught a glimpse . . .
G|-----------------|-----------------|-----------------|-----------------|
D|-----------------|-----------------|-----------------|-----------------|
A|-----------------|-6-6-66666-6-6-6-|-----------------|-----------------|
E|-2-2-22222-2-2-2-|-----------------|-6-6-66666-6-6-6-|-7-7-77777-7-7-7-|
 

Hopelessly trying to find . . .
G|-----------------|-----------------|-----------------|-----------------|
D|-----------------|-----------------|-----------------|-----------------|
A|-----------------|-6-6-66666-6-6-6-|-----------------|-----------------|
E|-2-2-22222-2-2-2-|-----------------|-6-6-66666-6-6-6-|-7-7-77777-7-7-7-|

In my mind, . . . 
G|----------|----------|----------|----------|
D|----------|----------|----------|----------|
A|----------|----------|----------|----------|
E|-44444444-|-77777777-|-44444444-|-77777----|

Chorus:

I’ll bleed for you . . . 
G|----------|----------|----------|----------|
D|----------|----------|----------|----------|
A|----------|-66666666-|----------|----------|
E|-22222222-|----------|-66666666-|-77777777-|

In my heart . . .
G|----------|----------|----------|----------|
D|----------|----------|----------|----------|
A|----------|-66666666-|----------|----------|
E|-22222222-|----------|-66666666-|-7--------|

Bridge:

Am I too late now? . . . 
G|------------------|------------------|---------------|---------------------|
D|------------------|------------------|---------------|---------------------|
A|-6666666666666666-|------------------|-44444-4444444-|-4444444-4444444-----|
E|------------------|-2222222222222222-|---------------|-----------------444-|

Will I find a way . . . 
G|------------------|------------------|---------------|-----------------|
D|------------------|------------------|---------------|-----------------|
A|-6666666666666666-|------------------|-44444-4444444-|-4444444-444-----|
E|------------------|-2222222222222222-|---------------|-----------------|

Ohhh, she’s breaking me down . . .
G|-------------|-------------|-----------|-----------|
D|-------------|-------------|-6-8-6-8---|-6-8-6-8---|
A|-------------|-------------|---------9-|---------9-|
E|-0-0-0-0---4-|-0-0-0-0---4-|-----------|-----------|

She’s breaking me down . . .
G|-------------|-------------|-----------|-----------|
D|-------------|-------------|-6-8-6-8---|-6-8-6-8---|
A|-------------|-------------|---------9-|---------9-|
E|-0-0-0-0---4-|-0-0-0-0---4-|-----------|-----------|

 
Chorus:

I’ll bleed for you  . . .
G|----------|------------|----------|----------|
D|-4444-----|------------|----------|----------|
A|----------|-6h6h6h6----|----------|----------|
E|----------|-or echo fx-|-66666666-|-77777777-|

In my heart . . .
G|----------|----------|----------|----------|
D|----------|----------|----------|----------|
A|----------|-66666666-|----------|----------|
E|-22222222-|----------|-66666666-|-77777777-|

Chorus:

I’ll bleed for you  . . .
G|-----------------|-----------------|-----------------|-----------------|
D|-----------------|-----------------|-----------------|-----------------|
A|-----------------|-6-6-66666-6-6-6-|-----------------|-----------------| 
E|-2-2-22222-2-2-2-|-----------------|-6-6-66666-6-6-6-|-7-7-77777-7-7-7-| 2x

Outro:

Permanent, permanent, permanent.
G|----------|----------|----------|-----------|
D|----------|----------|----------|-----------|
A|----------|----------|----------|-6~~~~~~~~-|
E|-7-7777---|-7-7777---|-7-7777---|-----------|
            
Submit corrections

comments powered by Disqus
↑ Back to top | Urban Dub Bass for A New Tattoo. Lyrics for acoustic guitar and electric guitar. 1 Tablatures and chords are parodies/interpretations of the original songs. You may use it for private study, scholarship, research or language learning purposes only