» » »

Type O Negative, Summer Breeze Tabs (ver.2)

Artists:  A B C D E F G H I J K L M N O P Q R S T U V W X Y Z # 

Summer Breeze Tabs (ver.2)

Type O Negative Tabs
Rating:
0/5 (0 votes)
Summer Breeze lessons Tabs too difficult? Try these video lessons and learn fast
                G|----------------------------------------------|-----|
D|--------0-------------------------------------|-----| 
A|-----------2--0-------------------------------|--5\-|
E|--0--3----------3---2h3p2p0--3-4-5--3-4-5-----|--3\-|


G|--------------------------------------------------------|----------------------------|
D|--------------------------7---7-------------------------|----------------------------|
A|---2---2-------5----5-------5---5--7---7--------2-------|-------5-----------5-7------|
E|--0---0--0-0--3----3---0-0--------5---5---0-0-0---------|--0-0-3---0-0-0-3-5-/12-----|



G|---------------------------------------------------|
D|----------------9----------------7--9--------------| 
A|----------------7----------------5--7--------------|
E|--------0-0----------0-0-0-------------------------|


D|-----------------------------------------------------------------------------|
A|---7---7-7-7-7------------9---9-9-9-9------------5---5--------7---7-------2--|
E|---5---5-5-5-5--5-4-5-6-7---7-7-7-7--7-6-7-8-3---3---0-0-5---5---0-0-0-------|


G|-----------------------------------------|
D|-----------------5--------9--------------|
A|--------2---0---3--------7---5-7--7^-----|
E|--------0---0-------0-0------3-5--5^-----|



G|----------------------------------------------------------------------|
D|---7-7-7-7-7-7-7-7-7-7-7-7-7-7-7-7-9-9-9-9-9-9-9-9-9-9-9-9-9-9-9-9----|
A|---5-5-5-5-5-5-5-5-5-5-5-5-5-5-5-5-7-7-7-7-7-7-7-7-7-7-7-7-7-7-7-7----|
E|---5-5-5-5-5-5-5-5-5-5-5-5-5-5-5-5-7-7-7-7-7-7-7-7-7-7-7-7-7-7-7-7----|
            
Submit corrections

comments powered by Disqus
↑ Back to top | Type O Negative Tabs for Summer Breeze. Lyrics for acoustic guitar and electric guitar. Tablatures and chords are parodies/interpretations of the original songs. You may use it for private study, scholarship, research or language learning purposes only