>
 >
Everyone I Love Is Dead 1

Everyone I Love Is Dead 1 Guitar Tabs

Type O Negative - Everyone I Love Is Dead 1 chords, tabs, tablatures, lyrics

Guitar lessons | Add/correct | Request | Top 50 tabs Artists:  A B C D E F G H I J K L M N O P Q R S T U V W X Y Z 0-9

Everyone I Love Is Dead 1 Guitar Tabs – Type O Negative

CD, Sheet music, Poster

Do you like Everyone I Love Is Dead 1? Share with your friends now
TabsTabs v2
Type-O tuning from low to high (B,E,A,D,F#,B)

||-0--------------------5---5-----5---5-----5---5--------------------||
||-5---5-3---1---3--------3---------3---------3---------3--------3---||
||-2-2-----2---0----0-0-------------------------------0---0----0---0-||
||----------------------------3-3-------2-2--------------------------||
||--------------------------------------------------3--------2-------||
||-------------------------------------------------------------------||

||-0--0-0----0-0--0----0-0-0-|-0--0-0----0-0--0----0-0-0-||
||-3--3-3----3-3--3----3-3-3-|-3--3-3----3-3--3----3-3-3-||
||-2--2-2----2-2--2----2-2-2-|-2--2-2----2-2--2----2-2-2-||
||-0--0-0-X--0-0--0-X--0-0-0-|-0--0-0-X--0-0--0-X--0-0-0-||
||---------------------------|---------------------------||
||---------------------------|---------------------------||
|
|(bass arr. for guit.)
||---------------------------|---------------------------||
||---------------------------|---------------------------||
||---------------------------|---------------------------||
||-7--7-7-X--7-7--7----------|-9--9-9-X--/10--10-10-/12--||
||---------------------5-5-5-|---------------------------||
||---------------------------|---------------------------||

"Since 3 years..."
(with wah pedal)                           (4th time w/ distortion)
||---------------------------|-----------------------------------||
||---------------------------|-----------------------------------||
||-7--7-7----7-7--7----7-7-7-|-7/-12--12-12\10-10---10-10-/12-12-||
||-7--7-7----7-7--7----7-7-7-|-7/-12--12-12\10-10---10-10-/12-12-||
||-5--5-5-X--5-5--5-X--5-5-5-|-5/-10--10-10\-8--8-X--8--8-/10-10-||
||---------------------------|-----------------------------------||

"God*** it!"
||------------------||
||------------------||
||------------------||
||-7---5----12---10-||
||-5---3----10----8-||
||------------------||

"A dusty stack..."
"Of times I cried..."
"Commit the past..."
"Acrid smoke..."
     pm.....|    pm.|                                    (+=full bend)
||-------------------------|----------------------------------------||
||-------------------------|----------------------------------------||
||-------------------------|----------------------------------------||
||-7--7-7-7-7-7--7---7-7-7-|-7-/12--12-12\10------------------------||
||-5--5-5-5-5-5--5-X-5-5-5-|-5-/10--10-10\-8-----8----8-10-10+-(10)-||
||-------------------------|------------------10---10---------------||

"God*** it!"
||------------------||
||------------------||
||------------------||
||-7---5----12---10-||
||-5---3----10----8-||
||------------------||

Repeat verse

CHORUS:
"Everyone I love is      dead" (ha-ha)         (2times)
||----------------------------------------------------||
||----------------------------------------------------||
||----------------------------------------------------||
||----------------------------------------------------||
||-7-------5--------------7-----3-/7--2-/7--10-10-9-4-||
||-5-------3--------------5-----1-/5--0-/5---8--8-7-3-||

KEYS/CHOIR:
         pm.        pm
||---------------------------|-----------------------------------||
||---------------------------|-----------------------------------||
||---------------------------|-----------------------------------||
||-7--7-7----7-7--7----7-7-7-|-7/-12--12-12\10-10---10-10-/12-12-||
||-5--5-5-X--5-5--5-X--5-5-5-|-5/-10--10-10\-8--8-X--8--8-/10-10-||
||---------------------------|-----------------------------------||

"Life a game..."
||---------------------------|-----------------------------------||
||---------------------------|-----------------------------------||
||-7--7-7----7-7--7----7-7-7-|-7/-12--12-12\10-10---10-10-/12-12-||
||-7--7-7----7-7--7----7-7-7-|-7/-12--12-12\10-10---10-10-/12-12-||
||-5--5-5-X--5-5--5-X--5-5-5-|-5/-10--10-10\-8--8-X--8--8-/10-10-||
||---------------------------|-----------------------------------||

"Everyone I love is      dead" (ha-ha)         (4 times)
||----------------------------------------------------||
||----------------------------------------------------||
||----------------------------------------------------||
||----------------------------------------------------||
||-7-------5--------------7-----3-/7--2-/7--10-10-9-4-||
||-5-------3--------------5-----1-/5--0-/5---8--8-7-3-||

GUITAR SOLO:
 (2 times, repeat one octave higher)
||-----------------------------------------------------------------||
||-----------------------------------13+-13+-13-----13----13-15-15-||
||-12+-12+--------------12+-(12)-----------------14----14----------||
||---------12--------12----------12--------------------------------||
||-------------12-15-----------------------------------------------||
||-----------------------------------------------------------------||

"All dead..."
(repeat till end)
||------------------||
||------------------||
||------------------||
||-7---5----12---10-||
||-5---3----10----8-||
||------------------||





Comments


Popular Type O Negative tabs & chords
Black No. 1 2 Bass Tabs
I Don't Wanna Be Me Bass Tabs
Paranoid 2 Bass Tabs
Burnt Flowers Fallen Tabs
Die With Me Tabs
Dream Is Dead Intro Tabs
I Don't Wanna Be Me 1 Tabs
Pyretta Blaze 2 Tabs
Summer Breeze 2 Tabs
Wolf Moon Tabs


Song lyrics



↑ Back to top | Tablatures and chords are parodies/interpretations of the original songs. You may use it for private study, scholarship, research or language learning purposes only
© 2014 AZChords.com Contact us | Privacy policy | DMCA | Add/correct tabs | Request tabs | Top 50 tabs