» » »

Type O Negative, Black Number One Bass tabs (ver.2)

Artists:  A B C D E F G H I J K L M N O P Q R S T U V W X Y Z # 

Black Number One Bass tabs (ver.2)

Type O Negative Tabs
 Rating:
4/5 (4 votes)
Black Number One lessons Tabs too difficult? Try these video lessons and learn fast
1
                This is definitely one of the best Type O songs
if you have the Least Worst of version ignore the break riff


Intro/Verse Riff 
                        play 3 times

G|-----------------------------------|---------------------------|
D|-----------------------------------|-------------------5-------|
A|--0-0-0-0-3-3-3-3-7-7-7-5---5-3-5--|-0-0-0-0-3-3-3-5-7---6-5---|
E|-----------------------------------|---------------------------|


During the "Black, Black, Black Number 1" part
		play 3 times

A|-------------------------------|------------------5--------|
E|--0----3----7----5----5-3-5----|-----0---3--5--7-----6--5--|


During the break between the harpischord part

A|-----------------5---5-5---5-7---------|
E|--0---0-0-3-0-0----------7------6h5p0--|     repeat


During the "Loving you was like loving the dead part"

                        play 3 times                    play 3 times

G|-----------------------------------|----------------------|
D|--7-7-7-7-9-9-9-9-4-4-4-4-4-2-2-2--|-7-------9-------4----|
A|--5-5-5-5-7-7-7-7-2-2-2-2-2-0-0-0--|-5-------7-------2----|
E|-----------------------------------|----------------------|

G|----------------------------|
D|-7-------9-----\------------|                 
A|-5-------7-----\------------|
E|----------------------------|
            
Submit corrections

comments powered by Disqus
↑ Back to top | Type O Negative Bass for Black Number One. Lyrics for acoustic guitar and electric guitar. 1 Tablatures and chords are parodies/interpretations of the original songs. You may use it for private study, scholarship, research or language learning purposes only