» » »

Tenacious D, Double Team Tabs (ver.3)

Artists:  A B C D E F G H I J K L M N O P Q R S T U V W X Y Z # 

Double Team Tabs (ver.3)

Tenacious D Tabs
 Rating:
4/5 (4 votes)
Double Team lessons Tabs too difficult? Try these video lessons and learn fast
1
                (Intro)
There isen't many tabs for the intro so i thought i do one, the tabs i've seen  
so far i don't think are completely right and they don't do the whole of the intro, 
so i've fixed it up a little.

The timeings a little off so listen to the song to figure it out.


E|--------7------8-------8----5------5-----3------7-----------------|
B|----7/8-8-------8-------8----5------5-----3------7----------------|
G|----9-------------9/10---------6/7--------------------------------| 
D|----------9-10---10--------7---7-------5----5/9----5--------------|
A|--7-------------------------------------------------7-------------|
e|------------------------------------------------------------------|
  Reapeat twice 

E|--------7---------------8-----------------------------------------|
B|----7/8-8-----------------8------5-----5-----5---5-------5-4------|
G|----9----------9--9---------9------6-----4---------4-------4------|
D|----------9-10-10-10-10--------7-----7-----7---5---5-5-5-----5----|
A|--7-----------------------------------------------------------7---|
e|------------------------------------------------------------------|

E|--------7---------------------------------------------------------|
B|----7/8-8-0------5-----5-----5---5-------5-4----------------------|
G|----9-----4-5------6-----6---------4-------4----------------------|
D|------------4--7---7-7---7-7---5---5-5-5-----5--------------------|
A|--7-------------------------------------------7-------------------|
e|------------------------------------------------------------------|

E|--------7---------------------------------------------------------|
B|----7/8-8-0---5----5-----5-----5---5-------5-4--------------------|
G|----9-----4-5-5------6-----6---------4-------4--------------------|
D|-----------------7---7-7---7-7---5---5-5-5-----5------------------|
A|--7---------------------------------------------7-----------------|
e|------------------------------------------------------------------|

E|--------7---------------------------------------------------------|
B|----7/8-8-0-0----5-----5-----5---5-------5-4----------------------|
G|----9--------------6-----6---------4--------4---------------------|
D|----------9-9--7-----7-----7---5---5-5-5------5-------------------|
A|--7---------------------------------------------------------------|
e|------------------------------------------------------------------|
            
Submit corrections

comments powered by Disqus
↑ Back to top | Tenacious D Tabs for Double Team. Lyrics for acoustic guitar and electric guitar. 1 Tablatures and chords are parodies/interpretations of the original songs. You may use it for private study, scholarship, research or language learning purposes only