» » »

Double Team Tabs (ver.1)

Artists:  A B C D E F G H I J K L M N O P Q R S T U V W X Y Z # 

Double Team Tabs (ver.1)

Tenacious D
Rating:
0/5 (0 votes)

Hard to play? Try these video lessons and learn fast.
                For:   Guitar
Tune:   EADGBE 
         of how he improvises After playing the first intro part twice.
  

Intro riff:

     Em             C             A         G       B
E-------7-------8------8------5-------5-----3-------7---|
B---7h8---8-------8-----8-------5-------5-----3-------7-|
G-------------------8h9-----------5h6-------------------| x2
D-9-----------------------------------------------------|
A-7-----------------------------------------------------|
E------------7/8------------5-------------3-----3-7-----|
 
then KG plays through it again a few times except this time he randomly
adds in notes from the actual chord but still keeps it practically 
all the same . It goes a bit like this: (this is just one example)#

Extra Intro Riff:

      Em           C              A          G      B        
E---7--7-7----------------------------------------------|
B---8----8-------------------5------5---5---3-----------|
G---9----9----9--9----9--9-----6------6-6-----4-----9-8-|
D---9--------10-10---10-10--------------7---------------|
A-7-----------------------------------------------------|
E----------8-------8-------5-----5--------3-----3-7-----|

Then as you get to the end of the intro just keep strumming these chords
These are also the figures for the intro riff (btw the above isnt exact,
its my interpretation, cos i no its not correct for a fact)

End of intro chords:

   Em       C       A       G       B
E---7---|---8---|---5---|---3---|---7---|
B---8---|---8---|---5---|---3---|---7---|
G---9---|---9---|---6---|---4---|---8---|
D---9---|---10--|---7---|---5---|---9---|
A---7---|---10--|---7---|---5---|---9---|
E---7---|---8---|---5---|---3---|---7---|

Part A:

(finishing intro)                   
Cause here me and
Em
KG come naked,
Bb         A    G
Out of the side-hatch,
Em                   Bb       A G 
With the oils and perfume and incense. 
Em
Now you're groovin', 
Bb       A      G  Em
Put on a cool '70s groove.

E---------------------------|
B---------------------------|
G---------------------------|
D---------------------------| x2
A---------------------------|
E-0-0-2-0-2h3-5-5-7-5-7b8b7-|

Part B:

E-------------------------------------------------|
B-------------------------------------------------|
G-----------------------0-2-0-2-0-2b3-2-2-2p0-----| Palm Muted
D-0-2-0-2-0-2-0-2-0h2-2-----------------------2p0-|
A-------------------------------------------------|
E-------------------------------------------------|

'We don't mind sucking on toes' 
 
Part C:

E-7-7-7-7-7-7-7-7-7-|---------------------|
B-8-8-7-8-8-8-8-7-8-|---------------------|
G-9-9-9-9-9-9-9-9-9-|-7-7-7-7-7-7-7-7-7-7-|
D-9-9-9-9-9-9-9-9-9-|-7-7-7-7-7-7-7-7-7-7-| 
A-7-7-7-7-7-7-7-7-7-|-5-5-5-5-5-5-5-5-5-5-|
E-------------------|---------------------|

E-7-7-7-7-7-7-7-7-7-|-------------------|
B-8-8-7-8-8-8-8-7-8-|-------------------|
G-9-9-9-9-9-9-9-9-9-|-7-7-7-7-7-7-7-7-6-|
D-9-9-9-9-9-9-9-9-9-|-7-7-7-7-7-7-7-7-6-| 
A-7-7-7-7-7-7-7-7-7-|-5-5-5-5-5-5-5-5-4-|
E-------------------|-------------------|

E---------------------|
B---------------------|
G-5-5-5-5-4-4-4-4-4-4-|
D-5-5-5-5-4-4-4-4-4-4-| x2
A-3-3-3-3-2-2-2-2-2-2-|
E---------------------|

E---------------------|   |-------------------------------------------|
B---------------------|   |-------------------------------------------|
G-7-7-7-7-5-5-5-------|X4 |-3-3-3-3-5-5-5-5-5-5-5-2-2-2-2-2-2-2-2-2-2-| x2
D-7-7-7-7-5-5-5-5-5-5-|   |-3-3-3-3-5-5-5-5-5-5-5-2-2-2-2-2-2-2-2-2-2-|
A-5-5-5-5-3-3-3-5-5-5-|   |-1-1-1-1-3-3-3-3-3-3-3-0-0-0-0-0-0-0-0-0-0-|
E---------------3-3-3-|   |-------------------------------------------|

then even more bar chords lol, but in the back ground of the above
i think those chords are played twice as fast by one of them on an acoustic.
So its pretty chaotic.

Electric guitar finale:

E----------------------------------------------------|
B----------------------------------------------------|
G-3-3-3-3-5-5-5-5-5-5-5-8-8-8-8-10-10-10-10-10-10-10-|
D-3-3-3-3-5-5-5-5-5-5-5-8-8-8-8-10-10-10-10-10-10-10-|
A-1-1-1-1-3-3-3-3-3-3-3-6-6-6-6--8--8--8--8--8--8--8-|
E----------------------------------------------------|


E-------------------------------------------------------|
B-------------------------------------------------------|
G-13-13-13-13-15-15-15-15-15-15-15-15-15-15-15-15-15-15-|
D-13-13-13-13-15-15-15-15-15-15-15-15-15-15-15-15-15-15-|
A-11-11-11-11-13-13-13-13-13-13-13-13-13-13-13-13-13-13-|
E-------------------------------------------------------|

Final acoustic:

E-0-0-x-0-0-x-0-0-x-0-0-x-0-|
B-0-0-x-0-0-x-0-0-x-0-0-x-0-|
G-1-1-x-1-1-x-1-1-x-1-1-x-1-| let the last strum ring
D-2-2-x-2-2-x-2-2-x-2-2-x-2-|
A-2-2-x-2-2-x-2-2-x-2-2-x-2-|
E-0-0-x-0-0-x-0-0-x-0-0-x-0-|

Order:
Intro
Extra Intro Riff
End of intro chords
Part A
Part B
Part C
Electric guitar finale
Final Acoustic

This took me  quite a while to tab up (few hours) using notepad, but
the only reason i tabbed it was because i couldn't find a tab for 
this anywhere. So please enjoy it!!!!!
If Anyone desperately needs help with either the chords or the lyrics
for me please :D O and i'd just like to add 'I'm Da Mach Now :D'
            
Hard to play? Try these video lessons and learn fast. | Correct




comments powered by Disqus
↑ Back to top | Tablatures and chords are parodies/interpretations of the original songs. You may use it for private study, scholarship, research or language learning purposes only