» » »

Tenacious D, Double Team Tabs (ver.2)

Artists:  A B C D E F G H I J K L M N O P Q R S T U V W X Y Z # 

Double Team Tabs (ver.2)

Tenacious D Tabs
 Rating:
4/5 (4 votes)
Double Team lessons Tabs too difficult? Try these video lessons and learn fast
1
                Intro:

2x
  Em          C               A              G       H
e-------7--------8--------8-----5-------5------3-------7-----|
B---7h8-8----------8--------------5--------------3-------7---|
G---9---9------------9h10---9-------6h7----6-----------------|
D---9-----9---10--------------7--------------5-----5-9-------|
A-7---------7----------------------------------------------9-|
E------------------------------------------------------------|
              ***, a hard day's rockin'...

  Em          C
e-------7------------8-----0------0---------0-------0---|
B---7h8-8--------------8-----2------0---------0-------4-|
G---9---9--------9-9-----2-----2------2---0-------4-----|
D---9-----9---10----------------------------------------|
A-7---------7-------------------------------------------|
E-------------------------------------------------------|
	 Slip out this book...

3x
  Em      C      
e-------7---------0------0---------0-------0---|
B---7h8-8-----------0------0---------0-------4-|
G---9---9-9--9--2-----2------2---0-------4-----|
D---9-----10-10--------------------------------|
A-7-------10-10--------------------------------|
E----------------------------------------------|
    How^Òs it goin^Ò?...


Em...C...A...G...H

and so on

Thats it! If you have anything to add, comments, questions E-mail 
me.
            
Submit corrections

comments powered by Disqus
↑ Back to top | Tenacious D Tabs for Double Team. Lyrics for acoustic guitar and electric guitar. 1 Tablatures and chords are parodies/interpretations of the original songs. You may use it for private study, scholarship, research or language learning purposes only